ISO-10303-21;
HEADER;
FILE_DESCRIPTION (( 'STEP AP214' ),
    '1' );
FILE_NAME ('CARBIDE PAD_IBF-5200-200.STEP',
    '2021-06-14T17:31:08',
    ( '' ),
    ( '' ),
    'SwSTEP 2.0',
    'SolidWorks 2021',
    '' );
FILE_SCHEMA (( 'AUTOMOTIVE_DESIGN' ));
ENDSEC;

DATA;
#1 = DIRECTION ( 'NONE',  ( -1.000000000000000000, 0.000000000000000000, 0.000000000000000000 ) ) ;
#2 = VERTEX_POINT ( 'NONE', #151 ) ;
#3 = DIRECTION ( 'NONE',  ( 1.000000000000000000, -0.000000000000000000, -1.365923996832131856E-16 ) ) ;
#4 = MECHANICAL_DESIGN_GEOMETRIC_PRESENTATION_REPRESENTATION (  '', ( #241 ), #191 ) ;
#5 = EDGE_CURVE ( 'NONE', #203, #93, #159, .T. ) ;
#6 = CARTESIAN_POINT ( 'NONE',  ( 0.000000000000000000, 0.1250000000000000000, 0.000000000000000000 ) ) ;
#7 = DIRECTION ( 'NONE',  ( 1.000000000000000000, 0.000000000000000000, -1.365923996832131609E-16 ) ) ;
#8 = VECTOR ( 'NONE', #207, 39.37007874015748143 ) ;
#9 = ADVANCED_FACE ( 'NONE', ( #259, #137 ), #197, .T. ) ;
#10 = EDGE_LOOP ( 'NONE', ( #257 ) ) ;
#11 = EDGE_LOOP ( 'NONE', ( #235 ) ) ;
#12 = DIRECTION ( 'NONE',  ( -0.000000000000000000, -0.000000000000000000, -1.000000000000000000 ) ) ;
#13 =( NAMED_UNIT ( * ) PLANE_ANGLE_UNIT ( ) SI_UNIT ( $, .RADIAN. ) );
#14 = AXIS2_PLACEMENT_3D ( 'NONE', #6, #175, #139 ) ;
#15 = CARTESIAN_POINT ( 'NONE',  ( -0.2500000000000000555, 0.000000000000000000, -0.2500000000000000000 ) ) ;
#16 = ADVANCED_FACE ( 'NONE', ( #216 ), #116, .F. ) ;
#17 = DIRECTION ( 'NONE',  ( 1.000000000000000000, -0.000000000000000000, -1.365923996832131856E-16 ) ) ;
#18 = DIRECTION ( 'NONE',  ( 1.000000000000000000, 0.000000000000000000, -0.000000000000000000 ) ) ;
#19 = AXIS2_PLACEMENT_3D ( 'NONE', #256, #3, #22 ) ;
#20 = FILL_AREA_STYLE ('',( #126 ) ) ;
#21 = APPLICATION_CONTEXT ( 'automotive_design' ) ;
#22 = DIRECTION ( 'NONE',  ( 0.000000000000000000, 0.000000000000000000, -1.000000000000000000 ) ) ;
#23 =( NAMED_UNIT ( * ) PLANE_ANGLE_UNIT ( ) SI_UNIT ( $, .RADIAN. ) );
#24 =( NAMED_UNIT ( * ) SI_UNIT ( $, .STERADIAN. ) SOLID_ANGLE_UNIT ( ) );
#25 = AXIS2_PLACEMENT_3D ( 'NONE', #128, #148, #18 ) ;
#26 = FACE_OUTER_BOUND ( 'NONE', #10, .T. ) ;
#27 = DIRECTION ( 'NONE',  ( 0.000000000000000000, 0.000000000000000000, 1.000000000000000000 ) ) ;
#28 = FILL_AREA_STYLE ('',( #51 ) ) ;
#29 = VERTEX_POINT ( 'NONE', #167 ) ;
#30 = ORIENTED_EDGE ( 'NONE', *, *, #96, .T. ) ;
#31 = EDGE_CURVE ( 'NONE', #2, #2, #104, .T. ) ;
#32 = EDGE_LOOP ( 'NONE', ( #52 ) ) ;
#33 = VECTOR ( 'NONE', #247, 39.37007874015748143 ) ;
#34 = EDGE_LOOP ( 'NONE', ( #157 ) ) ;
#35 = APPLICATION_CONTEXT ( 'automotive_design' ) ;
#36 = ORIENTED_EDGE ( 'NONE', *, *, #187, .F. ) ;
#37 = LENGTH_MEASURE_WITH_UNIT ( LENGTH_MEASURE( 0.02539999999999999897 ), #264 );
#38 = LINE ( 'NONE', #105, #208 ) ;
#39 = STYLED_ITEM ( 'NONE', ( #172 ), #212 ) ;
#40 = DIRECTION ( 'NONE',  ( 0.000000000000000000, -0.000000000000000000, 1.000000000000000000 ) ) ;
#41 = CARTESIAN_POINT ( 'NONE',  ( 0.3125000000000004441, -1.254474049663281586E-16, 0.3125000000000004441 ) ) ;
#42 = CARTESIAN_POINT ( 'NONE',  ( 0.000000000000000000, -3.414809992080329023E-17, 0.000000000000000000 ) ) ;
#43 = VECTOR ( 'NONE', #166, 39.37007874015748143 ) ;
#44 = LINE ( 'NONE', #262, #8 ) ;
#45 =( LENGTH_UNIT ( ) NAMED_UNIT ( * ) SI_UNIT ( $, .METRE. ) );
#46 =( BOUNDED_CURVE ( )  B_SPLINE_CURVE ( 3, ( #229, #41, #125, #206 ),
 .UNSPECIFIED., .F., .F. ) 
 B_SPLINE_CURVE_WITH_KNOTS ( ( 4, 4 ),
 ( 4.712388980384688786, 7.853981633974485455 ),
 .UNSPECIFIED. ) 
 CURVE ( )  GEOMETRIC_REPRESENTATION_ITEM ( )  RATIONAL_B_SPLINE_CURVE ( ( 1.000000000000000000, 0.3333333333333321491, 0.3333333333333321491, 1.000000000000000000 ) ) 
 REPRESENTATION_ITEM ( '' )  );
#47 = FACE_OUTER_BOUND ( 'NONE', #69, .T. ) ;
#48 = CIRCLE ( 'NONE', #92, 0.06250000000000000000 ) ;
#49 = DIMENSIONAL_EXPONENTS ( 1.000000000000000000, 0.000000000000000000, 0.000000000000000000, 0.000000000000000000, 0.000000000000000000, 0.000000000000000000, 0.000000000000000000 ) ;
#50 = DIRECTION ( 'NONE',  ( -1.000000000000000000, -0.000000000000000000, -0.000000000000000000 ) ) ;
#51 = FILL_AREA_STYLE_COLOUR ( '', #55 ) ;
#52 = ORIENTED_EDGE ( 'NONE', *, *, #132, .F. ) ;
#53 = ORIENTED_EDGE ( 'NONE', *, *, #192, .T. ) ;
#54 = ORIENTED_EDGE ( 'NONE', *, *, #66, .F. ) ;
#55 = COLOUR_RGB ( '',0.6980392156862744724, 0.6980392156862744724, 0.6980392156862744724 ) ;
#56 = ORIENTED_EDGE ( 'NONE', *, *, #123, .F. ) ;
#57 = CARTESIAN_POINT ( 'NONE',  ( 0.000000000000000000, 0.000000000000000000, 0.000000000000000000 ) ) ;
#58 = DIRECTION ( 'NONE',  ( 0.000000000000000000, 0.000000000000000000, -1.000000000000000000 ) ) ;
#59 = SHAPE_DEFINITION_REPRESENTATION ( #228, #198 ) ;
#60 = CARTESIAN_POINT ( 'NONE',  ( 0.000000000000000000, 0.000000000000000000, 0.000000000000000000 ) ) ;
#61 = AXIS2_PLACEMENT_3D ( 'NONE', #164, #205, #122 ) ;
#62 = LINE ( 'NONE', #81, #33 ) ;
#63 = LINE ( 'NONE', #250, #87 ) ;
#64 = VECTOR ( 'NONE', #50, 39.37007874015748143 ) ;
#65 =( NAMED_UNIT ( * ) SI_UNIT ( $, .STERADIAN. ) SOLID_ANGLE_UNIT ( ) );
#66 = EDGE_CURVE ( 'NONE', #180, #203, #63, .T. ) ;
#67 = CYLINDRICAL_SURFACE ( 'NONE', #19, 0.06250000000000000000 ) ;
#68 = FACE_OUTER_BOUND ( 'NONE', #34, .T. ) ;
#69 = EDGE_LOOP ( 'NONE', ( #178, #53, #218, #158 ) ) ;
#70 = ORIENTED_EDGE ( 'NONE', *, *, #173, .T. ) ;
#71 = PRESENTATION_LAYER_ASSIGNMENT (  '', '', ( #39 ) ) ;
#72 = EDGE_LOOP ( 'NONE', ( #141 ) ) ;
#73 = ADVANCED_FACE ( 'NONE', ( #149 ), #231, .F. ) ;
#74 = VERTEX_POINT ( 'NONE', #86 ) ;
#75 = VERTEX_POINT ( 'NONE', #103 ) ;
#76 = AXIS2_PLACEMENT_3D ( 'NONE', #268, #109, #186 ) ;
#77 = DIRECTION ( 'NONE',  ( 0.000000000000000000, 0.000000000000000000, 1.000000000000000000 ) ) ;
#78 = DIRECTION ( 'NONE',  ( 1.000000000000000000, 0.000000000000000000, -1.680327721695317057E-16 ) ) ;
#79 = DIRECTION ( 'NONE',  ( 1.000000000000000000, 0.000000000000000000, 0.000000000000000000 ) ) ;
#80 = FACE_BOUND ( 'NONE', #11, .T. ) ;
#81 = CARTESIAN_POINT ( 'NONE',  ( -0.2500000000000000555, 0.1250000000000000000, -0.2500000000000000000 ) ) ;
#82 = EDGE_CURVE ( 'NONE', #29, #93, #44, .T. ) ;
#83 = AXIS2_PLACEMENT_3D ( 'NONE', #143, #222, #230 ) ;
#84 = DIMENSIONAL_EXPONENTS ( 1.000000000000000000, 0.000000000000000000, 0.000000000000000000, 0.000000000000000000, 0.000000000000000000, 0.000000000000000000, 0.000000000000000000 ) ;
#85 = LINE ( 'NONE', #184, #43 ) ;
#86 = CARTESIAN_POINT ( 'NONE',  ( -0.2500000000000000555, 0.000000000000000000, 0.1875000000000000833 ) ) ;
#87 = VECTOR ( 'NONE', #12, 39.37007874015748143 ) ;
#88 = VERTEX_POINT ( 'NONE', #194 ) ;
#89 =( NAMED_UNIT ( * ) PLANE_ANGLE_UNIT ( ) SI_UNIT ( $, .RADIAN. ) );
#90 = DIRECTION ( 'NONE',  ( -0.000000000000000000, -0.000000000000000000, -1.000000000000000000 ) ) ;
#91 = CYLINDRICAL_SURFACE ( 'NONE', #146, 0.08849999999999966227 ) ;
#92 = AXIS2_PLACEMENT_3D ( 'NONE', #243, #78, #58 ) ;
#93 = VERTEX_POINT ( 'NONE', #15 ) ;
#94 = SURFACE_STYLE_USAGE ( .BOTH. , #97 ) ;
#95 = ORIENTED_EDGE ( 'NONE', *, *, #145, .T. ) ;
#96 = EDGE_CURVE ( 'NONE', #75, #237, #161, .T. ) ;
#97 = SURFACE_SIDE_STYLE ('',( #135 ) ) ;
#98 = DIRECTION ( 'NONE',  ( -1.365923996832131609E-16, 0.000000000000000000, -1.000000000000000000 ) ) ;
#99 = CIRCLE ( 'NONE', #246, 0.08849999999999985656 ) ;
#100 = ORIENTED_EDGE ( 'NONE', *, *, #82, .F. ) ;
#101 = ORIENTED_EDGE ( 'NONE', *, *, #145, .F. ) ;
#102 = PRODUCT ( 'CARBIDE PAD_IBF-5200-200', 'CARBIDE PAD_IBF-5200-200', '', ( #196 ) ) ;
#103 = CARTESIAN_POINT ( 'NONE',  ( -0.2500000000000000555, 0.1250000000000000000, 0.1875000000000000833 ) ) ;
#104 = CIRCLE ( 'NONE', #76, 0.08849999999999948186 ) ;
#105 = CARTESIAN_POINT ( 'NONE',  ( -0.2500000000000000555, 0.000000000000000000, -0.2500000000000000000 ) ) ;
#106 =( NAMED_UNIT ( * ) SI_UNIT ( $, .STERADIAN. ) SOLID_ANGLE_UNIT ( ) );
#107 = UNCERTAINTY_MEASURE_WITH_UNIT (LENGTH_MEASURE( 1.000000000000000082E-05 ), #210, 'distance_accuracy_value', 'NONE');
#108 = CARTESIAN_POINT ( 'NONE',  ( -0.2500000000000000555, 0.1250000000000000000, 0.1875000000000000833 ) ) ;
#109 = DIRECTION ( 'NONE',  ( -0.000000000000000000, 1.000000000000000000, -0.000000000000000000 ) ) ;
#110 =( GEOMETRIC_REPRESENTATION_CONTEXT ( 3 ) GLOBAL_UNCERTAINTY_ASSIGNED_CONTEXT ( ( #107 ) ) GLOBAL_UNIT_ASSIGNED_CONTEXT ( ( #210, #89, #24 ) ) REPRESENTATION_CONTEXT ( 'NONE', 'WORKASPACE' ) );
#111 = SURFACE_STYLE_FILL_AREA ( #20 ) ;
#112 = DIMENSIONAL_EXPONENTS ( 1.000000000000000000, 0.000000000000000000, 0.000000000000000000, 0.000000000000000000, 0.000000000000000000, 0.000000000000000000, 0.000000000000000000 ) ;
#113 = SURFACE_STYLE_USAGE ( .BOTH. , #189 ) ;
#114 = FACE_OUTER_BOUND ( 'NONE', #260, .T. ) ;
#115 = ORIENTED_EDGE ( 'NONE', *, *, #5, .T. ) ;
#116 = PLANE ( 'NONE',  #165 ) ;
#117 = ORIENTED_EDGE ( 'NONE', *, *, #177, .F. ) ;
#118 = CONICAL_SURFACE ( 'NONE', #171, 0.1794999999999999651, 0.7155849933176759992 ) ;
#119 = EDGE_LOOP ( 'NONE', ( #95, #160, #117, #202 ) ) ;
#120 = ORIENTED_EDGE ( 'NONE', *, *, #31, .T. ) ;
#121 = LINE ( 'NONE', #204, #181 ) ;
#122 = DIRECTION ( 'NONE',  ( -1.000000000000000000, 0.000000000000000000, 0.000000000000000000 ) ) ;
#123 = EDGE_CURVE ( 'NONE', #237, #201, #182, .T. ) ;
#124 = UNCERTAINTY_MEASURE_WITH_UNIT (LENGTH_MEASURE( 1.000000000000000082E-05 ), #130, 'distance_accuracy_value', 'NONE');
#125 = CARTESIAN_POINT ( 'NONE',  ( 0.3125000000000002776, 0.1250000000000003331, 0.3125000000000002776 ) ) ;
#126 = FILL_AREA_STYLE_COLOUR ( '', #156 ) ;
#127 = PRESENTATION_LAYER_ASSIGNMENT (  '', '', ( #241 ) ) ;
#128 = CARTESIAN_POINT ( 'NONE',  ( -0.2500000000000000555, 0.1250000000000000000, -0.2500000000000000000 ) ) ;
#129 = EDGE_CURVE ( 'NONE', #75, #74, #48, .T. ) ;
#130 =( CONVERSION_BASED_UNIT ( 'INCH', #153 ) LENGTH_UNIT ( ) NAMED_UNIT ( #84 ) );
#131 = DIRECTION ( 'NONE',  ( -0.000000000000000000, 1.000000000000000000, -0.000000000000000000 ) ) ;
#132 = EDGE_CURVE ( 'NONE', #88, #88, #200, .T. ) ;
#133 = CARTESIAN_POINT ( 'NONE',  ( 0.000000000000000000, -3.414809992080329023E-17, 0.08849999999999985656 ) ) ;
#134 = CARTESIAN_POINT ( 'NONE',  ( 0.1874999999999999722, 0.06250000000000000000, 0.2500000000000000555 ) ) ;
#135 = SURFACE_STYLE_FILL_AREA ( #28 ) ;
#136 = PRESENTATION_STYLE_ASSIGNMENT (( #94 ) ) ;
#137 = FACE_OUTER_BOUND ( 'NONE', #214, .T. ) ;
#138 = PRODUCT_DEFINITION ( 'UNKNOWN', '', #225, #227 ) ;
#139 = DIRECTION ( 'NONE',  ( 0.000000000000000000, -0.000000000000000000, 1.000000000000000000 ) ) ;
#140 = ORIENTED_EDGE ( 'NONE', *, *, #192, .F. ) ;
#141 = ORIENTED_EDGE ( 'NONE', *, *, #31, .F. ) ;
#142 = CARTESIAN_POINT ( 'NONE',  ( -0.2500000000000000555, 0.000000000000000000, -0.2500000000000000000 ) ) ;
#143 = CARTESIAN_POINT ( 'NONE',  ( 0.000000000000000000, 0.1250000000000000555, 0.000000000000000000 ) ) ;
#144 = DIRECTION ( 'NONE',  ( 1.000000000000000000, -0.000000000000000000, -1.365923996832131856E-16 ) ) ;
#145 = EDGE_CURVE ( 'NONE', #93, #74, #38, .T. ) ;
#146 = AXIS2_PLACEMENT_3D ( 'NONE', #252, #170, #233 ) ;
#147 = CARTESIAN_POINT ( 'NONE',  ( 0.1874999999999999722, 0.1250000000000000000, -0.2500000000000000000 ) ) ;
#148 = DIRECTION ( 'NONE',  ( 0.000000000000000000, 0.000000000000000000, 1.000000000000000000 ) ) ;
#149 = FACE_OUTER_BOUND ( 'NONE', #217, .T. ) ;
#150 = AXIS2_PLACEMENT_3D ( 'NONE', #134, #90, #1 ) ;
#151 = CARTESIAN_POINT ( 'NONE',  ( 0.000000000000000000, 0.02031647494288782441, 0.08849999999999948186 ) ) ;
#152 = CARTESIAN_POINT ( 'NONE',  ( 0.1874999999999997502, 0.1250000000000000000, 0.1875000000000000278 ) ) ;
#153 = LENGTH_MEASURE_WITH_UNIT ( LENGTH_MEASURE( 0.02539999999999999897 ), #45 );
#154 = EDGE_CURVE ( 'NONE', #74, #180, #121, .T. ) ;
#155 = ORIENTED_EDGE ( 'NONE', *, *, #154, .F. ) ;
#156 = COLOUR_RGB ( '',0.6980392156862744724, 0.6980392156862744724, 0.6980392156862744724 ) ;
#157 = ORIENTED_EDGE ( 'NONE', *, *, #132, .T. ) ;
#158 = ORIENTED_EDGE ( 'NONE', *, *, #129, .T. ) ;
#159 = LINE ( 'NONE', #142, #64 ) ;
#160 = ORIENTED_EDGE ( 'NONE', *, *, #129, .F. ) ;
#161 = LINE ( 'NONE', #108, #223 ) ;
#162 = ADVANCED_FACE ( 'NONE', ( #80, #163 ), #245, .F. ) ;
#163 = FACE_OUTER_BOUND ( 'NONE', #174, .T. ) ;
#164 = CARTESIAN_POINT ( 'NONE',  ( 0.1874999999999999722, 0.06250000000000000000, -0.2500000000000000000 ) ) ;
#165 = AXIS2_PLACEMENT_3D ( 'NONE', #199, #7, #98 ) ;
#166 = DIRECTION ( 'NONE',  ( 1.365923996832131609E-16, 0.000000000000000000, 1.000000000000000000 ) ) ;
#167 = CARTESIAN_POINT ( 'NONE',  ( -0.2500000000000000555, 0.1250000000000000000, -0.2500000000000000000 ) ) ;
#168 = VECTOR ( 'NONE', #183, 39.37007874015748143 ) ;
#169 = FACE_BOUND ( 'NONE', #72, .T. ) ;
#170 = DIRECTION ( 'NONE',  ( -0.000000000000000000, 1.000000000000000000, -0.000000000000000000 ) ) ;
#171 = AXIS2_PLACEMENT_3D ( 'NONE', #254, #213, #27 ) ;
#172 = PRESENTATION_STYLE_ASSIGNMENT (( #113 ) ) ;
#173 = EDGE_CURVE ( 'NONE', #201, #203, #176, .T. ) ;
#174 = EDGE_LOOP ( 'NONE', ( #54, #155, #101, #261 ) ) ;
#175 = DIRECTION ( 'NONE',  ( 0.000000000000000000, 1.000000000000000000, 0.000000000000000000 ) ) ;
#176 = CIRCLE ( 'NONE', #61, 0.06250000000000000000 ) ;
#177 = EDGE_CURVE ( 'NONE', #29, #75, #85, .T. ) ;
#178 = ORIENTED_EDGE ( 'NONE', *, *, #154, .T. ) ;
#179 = ORIENTED_EDGE ( 'NONE', *, *, #187, .T. ) ;
#180 = VERTEX_POINT ( 'NONE', #266 ) ;
#181 = VECTOR ( 'NONE', #144, 39.37007874015748143 ) ;
#182 = LINE ( 'NONE', #267, #168 ) ;
#183 = DIRECTION ( 'NONE',  ( -0.000000000000000000, -0.000000000000000000, -1.000000000000000000 ) ) ;
#184 = CARTESIAN_POINT ( 'NONE',  ( -0.2500000000000000555, 0.1250000000000000000, -0.2500000000000000000 ) ) ;
#185 = UNCERTAINTY_MEASURE_WITH_UNIT (LENGTH_MEASURE( 1.000000000000000082E-05 ), #221, 'distance_accuracy_value', 'NONE');
#186 = DIRECTION ( 'NONE',  ( 0.000000000000000000, 0.000000000000000000, 1.000000000000000000 ) ) ;
#187 = EDGE_CURVE ( 'NONE', #201, #29, #62, .T. ) ;
#188 = CLOSED_SHELL ( 'NONE', ( #73, #226, #162, #9, #16, #232, #265, #240 ) ) ;
#189 = SURFACE_SIDE_STYLE ('',( #111 ) ) ;
#190 = FACE_OUTER_BOUND ( 'NONE', #239, .T. ) ;
#191 =( GEOMETRIC_REPRESENTATION_CONTEXT ( 3 ) GLOBAL_UNCERTAINTY_ASSIGNED_CONTEXT ( ( #185 ) ) GLOBAL_UNIT_ASSIGNED_CONTEXT ( ( #221, #13, #106 ) ) REPRESENTATION_CONTEXT ( 'NONE', 'WORKASPACE' ) );
#192 = EDGE_CURVE ( 'NONE', #180, #237, #46, .T. ) ;
#193 = CYLINDRICAL_SURFACE ( 'NONE', #150, 0.06250000000000000000 ) ;
#194 = CARTESIAN_POINT ( 'NONE',  ( 0.000000000000000000, 0.1250000000000000555, 0.1794999999999999651 ) ) ;
#195 = MECHANICAL_DESIGN_GEOMETRIC_PRESENTATION_REPRESENTATION (  '', ( #39 ), #211 ) ;
#196 = PRODUCT_CONTEXT ( 'NONE', #21, 'mechanical' ) ;
#197 = PLANE ( 'NONE',  #14 ) ;
#198 = ADVANCED_BREP_SHAPE_REPRESENTATION ( 'CARBIDE PAD_IBF-5200-200', ( #212, #248 ), #110 ) ;
#199 = CARTESIAN_POINT ( 'NONE',  ( -0.2500000000000000555, 0.1250000000000000000, -0.2500000000000000000 ) ) ;
#200 = CIRCLE ( 'NONE', #83, 0.1794999999999999651 ) ;
#201 = VERTEX_POINT ( 'NONE', #147 ) ;
#202 = ORIENTED_EDGE ( 'NONE', *, *, #82, .T. ) ;
#203 = VERTEX_POINT ( 'NONE', #249 ) ;
#204 = CARTESIAN_POINT ( 'NONE',  ( -0.2500000000000000555, 0.000000000000000000, 0.1875000000000000833 ) ) ;
#205 = DIRECTION ( 'NONE',  ( 0.000000000000000000, 0.000000000000000000, -1.000000000000000000 ) ) ;
#206 = CARTESIAN_POINT ( 'NONE',  ( 0.1874999999999997502, 0.1250000000000000000, 0.1875000000000000278 ) ) ;
#207 = DIRECTION ( 'NONE',  ( -0.000000000000000000, -1.000000000000000000, -0.000000000000000000 ) ) ;
#208 = VECTOR ( 'NONE', #263, 39.37007874015748143 ) ;
#209 = DIRECTION ( 'NONE',  ( 0.000000000000000000, 0.000000000000000000, 1.000000000000000000 ) ) ;
#210 =( CONVERSION_BASED_UNIT ( 'INCH', #253 ) LENGTH_UNIT ( ) NAMED_UNIT ( #49 ) );
#211 =( GEOMETRIC_REPRESENTATION_CONTEXT ( 3 ) GLOBAL_UNCERTAINTY_ASSIGNED_CONTEXT ( ( #124 ) ) GLOBAL_UNIT_ASSIGNED_CONTEXT ( ( #130, #23, #65 ) ) REPRESENTATION_CONTEXT ( 'NONE', 'WORKASPACE' ) );
#212 = MANIFOLD_SOLID_BREP ( 'CSK for #8 Flat Head Socket Cap Screw1', #188 ) ;
#213 = DIRECTION ( 'NONE',  ( -0.000000000000000000, 1.000000000000000000, -0.000000000000000000 ) ) ;
#214 = EDGE_LOOP ( 'NONE', ( #30, #238, #179, #220 ) ) ;
#215 = APPLICATION_PROTOCOL_DEFINITION ( 'draft international standard', 'automotive_design', 1998, #35 ) ;
#216 = FACE_OUTER_BOUND ( 'NONE', #119, .T. ) ;
#217 = EDGE_LOOP ( 'NONE', ( #70, #115, #100, #36 ) ) ;
#218 = ORIENTED_EDGE ( 'NONE', *, *, #96, .F. ) ;
#219 = EDGE_CURVE ( 'NONE', #255, #255, #99, .T. ) ;
#220 = ORIENTED_EDGE ( 'NONE', *, *, #177, .T. ) ;
#221 =( CONVERSION_BASED_UNIT ( 'INCH', #37 ) LENGTH_UNIT ( ) NAMED_UNIT ( #112 ) );
#222 = DIRECTION ( 'NONE',  ( -0.000000000000000000, 1.000000000000000000, -0.000000000000000000 ) ) ;
#223 = VECTOR ( 'NONE', #17, 39.37007874015748143 ) ;
#224 = DIRECTION ( 'NONE',  ( 0.000000000000000000, 1.000000000000000000, 0.000000000000000000 ) ) ;
#225 = PRODUCT_DEFINITION_FORMATION_WITH_SPECIFIED_SOURCE ( 'ANY', '', #102, .NOT_KNOWN. ) ;
#226 = ADVANCED_FACE ( 'NONE', ( #47 ), #67, .T. ) ;
#227 = PRODUCT_DEFINITION_CONTEXT ( 'detailed design', #35, 'design' ) ;
#228 = PRODUCT_DEFINITION_SHAPE ( 'NONE', 'NONE',  #138 ) ;
#229 = CARTESIAN_POINT ( 'NONE',  ( 0.1874999999999999722, 0.000000000000000000, 0.1875000000000000555 ) ) ;
#230 = DIRECTION ( 'NONE',  ( 0.000000000000000000, 0.000000000000000000, 1.000000000000000000 ) ) ;
#231 = PLANE ( 'NONE',  #25 ) ;
#232 = ADVANCED_FACE ( 'NONE', ( #190 ), #193, .T. ) ;
#233 = DIRECTION ( 'NONE',  ( 0.000000000000000000, 0.000000000000000000, 1.000000000000000000 ) ) ;
#234 =( LENGTH_UNIT ( ) NAMED_UNIT ( * ) SI_UNIT ( $, .METRE. ) );
#235 = ORIENTED_EDGE ( 'NONE', *, *, #219, .T. ) ;
#236 = AXIS2_PLACEMENT_3D ( 'NONE', #60, #224, #40 ) ;
#237 = VERTEX_POINT ( 'NONE', #152 ) ;
#238 = ORIENTED_EDGE ( 'NONE', *, *, #123, .T. ) ;
#239 = EDGE_LOOP ( 'NONE', ( #140, #258, #242, #56 ) ) ;
#240 = ADVANCED_FACE ( 'NONE', ( #169, #68 ), #118, .F. ) ;
#241 = STYLED_ITEM ( 'NONE', ( #136 ), #198 ) ;
#242 = ORIENTED_EDGE ( 'NONE', *, *, #173, .F. ) ;
#243 = CARTESIAN_POINT ( 'NONE',  ( -0.2500000000000000555, 0.06250000000000000000, 0.1875000000000000833 ) ) ;
#244 = APPLICATION_PROTOCOL_DEFINITION ( 'draft international standard', 'automotive_design', 1998, #21 ) ;
#245 = PLANE ( 'NONE',  #236 ) ;
#246 = AXIS2_PLACEMENT_3D ( 'NONE', #42, #131, #209 ) ;
#247 = DIRECTION ( 'NONE',  ( -1.000000000000000000, -0.000000000000000000, -0.000000000000000000 ) ) ;
#248 = AXIS2_PLACEMENT_3D ( 'NONE', #57, #77, #79 ) ;
#249 = CARTESIAN_POINT ( 'NONE',  ( 0.1874999999999999722, 0.000000000000000000, -0.2500000000000000000 ) ) ;
#250 = CARTESIAN_POINT ( 'NONE',  ( 0.1874999999999999722, 0.000000000000000000, 0.2500000000000000555 ) ) ;
#251 = PRODUCT_RELATED_PRODUCT_CATEGORY ( 'part', '', ( #102 ) ) ;
#252 = CARTESIAN_POINT ( 'NONE',  ( 0.000000000000000000, 0.1250000000000000000, 0.000000000000000000 ) ) ;
#253 = LENGTH_MEASURE_WITH_UNIT ( LENGTH_MEASURE( 0.02539999999999999897 ), #234 );
#254 = CARTESIAN_POINT ( 'NONE',  ( 0.000000000000000000, 0.1250000000000000555, 0.000000000000000000 ) ) ;
#255 = VERTEX_POINT ( 'NONE', #133 ) ;
#256 = CARTESIAN_POINT ( 'NONE',  ( -0.2500000000000000555, 0.06250000000000000000, 0.1875000000000000833 ) ) ;
#257 = ORIENTED_EDGE ( 'NONE', *, *, #219, .F. ) ;
#258 = ORIENTED_EDGE ( 'NONE', *, *, #66, .T. ) ;
#259 = FACE_BOUND ( 'NONE', #32, .T. ) ;
#260 = EDGE_LOOP ( 'NONE', ( #120 ) ) ;
#261 = ORIENTED_EDGE ( 'NONE', *, *, #5, .F. ) ;
#262 = CARTESIAN_POINT ( 'NONE',  ( -0.2500000000000000555, 0.1250000000000000000, -0.2500000000000000000 ) ) ;
#263 = DIRECTION ( 'NONE',  ( 1.365923996832131609E-16, 0.000000000000000000, 1.000000000000000000 ) ) ;
#264 =( LENGTH_UNIT ( ) NAMED_UNIT ( * ) SI_UNIT ( $, .METRE. ) );
#265 = ADVANCED_FACE ( 'NONE', ( #26, #114 ), #91, .F. ) ;
#266 = CARTESIAN_POINT ( 'NONE',  ( 0.1874999999999999722, 0.000000000000000000, 0.1875000000000000555 ) ) ;
#267 = CARTESIAN_POINT ( 'NONE',  ( 0.1874999999999999722, 0.1250000000000000000, 0.2500000000000000555 ) ) ;
#268 = CARTESIAN_POINT ( 'NONE',  ( 0.000000000000000000, 0.02031647494288782441, 0.000000000000000000 ) ) ;
ENDSEC;
END-ISO-10303-21;
