ISO-10303-21;
HEADER;
FILE_DESCRIPTION (( 'STEP AP214' ),
    '1' );
FILE_NAME ('CARBIDE PAD_IBF-5200-150.STEP',
    '2021-06-14T17:30:48',
    ( '' ),
    ( '' ),
    'SwSTEP 2.0',
    'SolidWorks 2021',
    '' );
FILE_SCHEMA (( 'AUTOMOTIVE_DESIGN' ));
ENDSEC;

DATA;
#1 = AXIS2_PLACEMENT_3D ( 'NONE', #2, #372, #336 ) ;
#2 = CARTESIAN_POINT ( 'NONE',  ( 0.2450000000000000233, 0.000000000000000000, 0.2449999999999999400 ) ) ;
#3 = PRODUCT ( 'CARBIDE PAD_IBF-5200-150', 'CARBIDE PAD_IBF-5200-150', '', ( #109 ) ) ;
#4 = ADVANCED_FACE ( 'NONE', ( #329, #277 ), #322, .F. ) ;
#5 = CARTESIAN_POINT ( 'NONE',  ( 0.2450000000000000233, 0.1250000000000000000, -0.2450000000000000233 ) ) ;
#6 = SURFACE_SIDE_STYLE ('',( #338 ) ) ;
#7 = DIRECTION ( 'NONE',  ( 0.000000000000000000, 0.000000000000000000, -1.000000000000000000 ) ) ;
#8 = ADVANCED_FACE ( 'NONE', ( #330 ), #64, .T. ) ;
#9 = CARTESIAN_POINT ( 'NONE',  ( -0.2449999999999999400, 0.1250000000000000000, -0.2450000000000000233 ) ) ;
#10 = VECTOR ( 'NONE', #256, 39.37007874015748143 ) ;
#11 = CIRCLE ( 'NONE', #400, 0.005000000000000014849 ) ;
#12 = CARTESIAN_POINT ( 'NONE',  ( 0.2500000000000000555, 0.1250000000000000000, 0.2499999999999999722 ) ) ;
#13 = CARTESIAN_POINT ( 'NONE',  ( -0.2499999999999999722, 0.1250000000000000000, 0.2449999999999999400 ) ) ;
#14 = ADVANCED_FACE ( 'NONE', ( #71 ), #222, .T. ) ;
#15 = ORIENTED_EDGE ( 'NONE', *, *, #337, .T. ) ;
#16 = PLANE ( 'NONE',  #295 ) ;
#17 = ORIENTED_EDGE ( 'NONE', *, *, #124, .T. ) ;
#18 = VECTOR ( 'NONE', #341, 39.37007874015748143 ) ;
#19 = AXIS2_PLACEMENT_3D ( 'NONE', #102, #367, #223 ) ;
#20 = CARTESIAN_POINT ( 'NONE',  ( -0.2499999999999999722, 0.1250000000000000000, 0.2499999999999999722 ) ) ;
#21 = DIRECTION ( 'NONE',  ( 1.000000000000000000, 0.000000000000000000, 0.000000000000000000 ) ) ;
#22 = EDGE_CURVE ( 'NONE', #119, #215, #307, .T. ) ;
#23 = ORIENTED_EDGE ( 'NONE', *, *, #85, .T. ) ;
#24 = VECTOR ( 'NONE', #284, 39.37007874015748143 ) ;
#25 = CARTESIAN_POINT ( 'NONE',  ( 0.2450000000000000233, 0.1250000000000000000, -0.2450000000000000233 ) ) ;
#26 = EDGE_LOOP ( 'NONE', ( #358, #90, #159, #99 ) ) ;
#27 = CARTESIAN_POINT ( 'NONE',  ( 0.000000000000000000, 0.1250000000000000000, 0.000000000000000000 ) ) ;
#28 = VERTEX_POINT ( 'NONE', #67 ) ;
#29 = EDGE_CURVE ( 'NONE', #197, #133, #43, .T. ) ;
#30 = FACE_OUTER_BOUND ( 'NONE', #301, .T. ) ;
#31 = ORIENTED_EDGE ( 'NONE', *, *, #44, .T. ) ;
#32 = MECHANICAL_DESIGN_GEOMETRIC_PRESENTATION_REPRESENTATION (  '', ( #375 ), #376 ) ;
#33 =( LENGTH_UNIT ( ) NAMED_UNIT ( * ) SI_UNIT ( $, .METRE. ) );
#34 = VECTOR ( 'NONE', #98, 39.37007874015748143 ) ;
#35 = ORIENTED_EDGE ( 'NONE', *, *, #106, .T. ) ;
#36 = CARTESIAN_POINT ( 'NONE',  ( -0.2449999999999999400, 0.000000000000000000, -0.2450000000000000233 ) ) ;
#37 = APPLICATION_PROTOCOL_DEFINITION ( 'draft international standard', 'automotive_design', 1998, #52 ) ;
#38 = DIRECTION ( 'NONE',  ( 0.000000000000000000, 0.000000000000000000, -1.000000000000000000 ) ) ;
#39 = VECTOR ( 'NONE', #103, 39.37007874015748143 ) ;
#40 = CARTESIAN_POINT ( 'NONE',  ( -0.2449999999999999400, 0.1250000000000000000, 0.2499999999999999722 ) ) ;
#41 = AXIS2_PLACEMENT_3D ( 'NONE', #27, #328, #148 ) ;
#42 = LENGTH_MEASURE_WITH_UNIT ( LENGTH_MEASURE( 0.02539999999999999897 ), #221 );
#43 = LINE ( 'NONE', #111, #39 ) ;
#44 = EDGE_CURVE ( 'NONE', #149, #405, #178, .T. ) ;
#45 = LINE ( 'NONE', #166, #24 ) ;
#46 = LENGTH_MEASURE_WITH_UNIT ( LENGTH_MEASURE( 0.02539999999999999897 ), #233 );
#47 = ORIENTED_EDGE ( 'NONE', *, *, #167, .F. ) ;
#48 = COLOUR_RGB ( '',0.6980392156862744724, 0.6980392156862744724, 0.6980392156862744724 ) ;
#49 = EDGE_CURVE ( 'NONE', #208, #208, #327, .T. ) ;
#50 = PLANE ( 'NONE',  #398 ) ;
#51 = EDGE_LOOP ( 'NONE', ( #204, #176, #352, #243, #332, #15, #299, #207 ) ) ;
#52 = APPLICATION_CONTEXT ( 'automotive_design' ) ;
#53 =( CONVERSION_BASED_UNIT ( 'INCH', #46 ) LENGTH_UNIT ( ) NAMED_UNIT ( #344 ) );
#54 = FACE_OUTER_BOUND ( 'NONE', #65, .T. ) ;
#55 = ORIENTED_EDGE ( 'NONE', *, *, #292, .F. ) ;
#56 = VECTOR ( 'NONE', #113, 39.37007874015748143 ) ;
#57 = VERTEX_POINT ( 'NONE', #238 ) ;
#58 = ORIENTED_EDGE ( 'NONE', *, *, #211, .F. ) ;
#59 = DIRECTION ( 'NONE',  ( 0.000000000000000000, -1.000000000000000000, 0.000000000000000000 ) ) ;
#60 = ORIENTED_EDGE ( 'NONE', *, *, #297, .F. ) ;
#61 = AXIS2_PLACEMENT_3D ( 'NONE', #187, #306, #38 ) ;
#62 = ORIENTED_EDGE ( 'NONE', *, *, #220, .F. ) ;
#63 = CARTESIAN_POINT ( 'NONE',  ( 0.2450000000000000233, 0.1250000000000000000, 0.2449999999999999400 ) ) ;
#64 = CYLINDRICAL_SURFACE ( 'NONE', #334, 0.005000000000000014849 ) ;
#65 = EDGE_LOOP ( 'NONE', ( #361, #35, #83, #31, #62, #17, #171, #173 ) ) ;
#66 = DIRECTION ( 'NONE',  ( -0.000000000000000000, 1.000000000000000000, -0.000000000000000000 ) ) ;
#67 = CARTESIAN_POINT ( 'NONE',  ( -0.2499999999999999722, 0.000000000000000000, -0.2450000000000000233 ) ) ;
#68 =( NAMED_UNIT ( * ) SI_UNIT ( $, .STERADIAN. ) SOLID_ANGLE_UNIT ( ) );
#69 = CARTESIAN_POINT ( 'NONE',  ( 0.000000000000000000, -3.414809992080329023E-17, 0.000000000000000000 ) ) ;
#70 = AXIS2_PLACEMENT_3D ( 'NONE', #382, #146, #316 ) ;
#71 = FACE_OUTER_BOUND ( 'NONE', #177, .T. ) ;
#72 = ADVANCED_FACE ( 'NONE', ( #105 ), #216, .T. ) ;
#73 = PLANE ( 'NONE',  #217 ) ;
#74 = PRODUCT_DEFINITION_CONTEXT ( 'detailed design', #356, 'design' ) ;
#75 = SURFACE_STYLE_USAGE ( .BOTH. , #142 ) ;
#76 = CARTESIAN_POINT ( 'NONE',  ( -0.2499999999999999722, 0.1250000000000000000, -0.2500000000000000555 ) ) ;
#77 = AXIS2_PLACEMENT_3D ( 'NONE', #5, #283, #137 ) ;
#78 = ORIENTED_EDGE ( 'NONE', *, *, #350, .F. ) ;
#79 = CIRCLE ( 'NONE', #385, 0.005000000000000014849 ) ;
#80 = EDGE_CURVE ( 'NONE', #28, #119, #281, .T. ) ;
#81 = CARTESIAN_POINT ( 'NONE',  ( -0.2449999999999999400, 0.1250000000000000000, -0.2500000000000000555 ) ) ;
#82 = CARTESIAN_POINT ( 'NONE',  ( -0.2499999999999999722, 0.1250000000000000000, 0.2499999999999999722 ) ) ;
#83 = ORIENTED_EDGE ( 'NONE', *, *, #378, .F. ) ;
#84 = LINE ( 'NONE', #118, #280 ) ;
#85 = EDGE_CURVE ( 'NONE', #236, #236, #384, .T. ) ;
#86 = VECTOR ( 'NONE', #115, 39.37007874015748143 ) ;
#87 = ADVANCED_BREP_SHAPE_REPRESENTATION ( 'CARBIDE PAD_IBF-5200-150', ( #304, #19 ), #360 ) ;
#88 = DIRECTION ( 'NONE',  ( -0.000000000000000000, 1.000000000000000000, -0.000000000000000000 ) ) ;
#89 = DIRECTION ( 'NONE',  ( 0.000000000000000000, 0.000000000000000000, -1.000000000000000000 ) ) ;
#90 = ORIENTED_EDGE ( 'NONE', *, *, #145, .T. ) ;
#91 = EDGE_CURVE ( 'NONE', #274, #127, #279, .T. ) ;
#92 = DIRECTION ( 'NONE',  ( -0.000000000000000000, 1.000000000000000000, -0.000000000000000000 ) ) ;
#93 = ORIENTED_EDGE ( 'NONE', *, *, #205, .F. ) ;
#94 = AXIS2_PLACEMENT_3D ( 'NONE', #36, #186, #164 ) ;
#95 = STYLED_ITEM ( 'NONE', ( #104 ), #87 ) ;
#96 =( NAMED_UNIT ( * ) SI_UNIT ( $, .STERADIAN. ) SOLID_ANGLE_UNIT ( ) );
#97 = ORIENTED_EDGE ( 'NONE', *, *, #370, .F. ) ;
#98 = DIRECTION ( 'NONE',  ( -0.000000000000000000, 1.000000000000000000, -0.000000000000000000 ) ) ;
#99 = ORIENTED_EDGE ( 'NONE', *, *, #346, .T. ) ;
#100 = VERTEX_POINT ( 'NONE', #40 ) ;
#101 = AXIS2_PLACEMENT_3D ( 'NONE', #394, #125, #387 ) ;
#102 = CARTESIAN_POINT ( 'NONE',  ( 0.000000000000000000, 0.000000000000000000, 0.000000000000000000 ) ) ;
#103 = DIRECTION ( 'NONE',  ( -1.000000000000000000, -0.000000000000000000, -0.000000000000000000 ) ) ;
#104 = PRESENTATION_STYLE_ASSIGNMENT (( #373 ) ) ;
#105 = FACE_OUTER_BOUND ( 'NONE', #285, .T. ) ;
#106 = EDGE_CURVE ( 'NONE', #28, #317, #110, .T. ) ;
#107 = FILL_AREA_STYLE ('',( #251 ) ) ;
#108 = CARTESIAN_POINT ( 'NONE',  ( -0.2449999999999999400, 0.1250000000000000000, -0.2500000000000000555 ) ) ;
#109 = PRODUCT_CONTEXT ( 'NONE', #52, 'mechanical' ) ;
#110 = CIRCLE ( 'NONE', #94, 0.005000000000000014849 ) ;
#111 = CARTESIAN_POINT ( 'NONE',  ( -0.2499999999999999722, 0.1250000000000000000, -0.2500000000000000555 ) ) ;
#112 = VECTOR ( 'NONE', #210, 39.37007874015748143 ) ;
#113 = DIRECTION ( 'NONE',  ( -0.000000000000000000, 1.000000000000000000, -0.000000000000000000 ) ) ;
#114 = LINE ( 'NONE', #81, #56 ) ;
#115 = DIRECTION ( 'NONE',  ( 0.000000000000000000, -1.000000000000000000, 0.000000000000000000 ) ) ;
#116 =( GEOMETRIC_REPRESENTATION_CONTEXT ( 3 ) GLOBAL_UNCERTAINTY_ASSIGNED_CONTEXT ( ( #117 ) ) GLOBAL_UNIT_ASSIGNED_CONTEXT ( ( #245, #305, #68 ) ) REPRESENTATION_CONTEXT ( 'NONE', 'WORKASPACE' ) );
#117 = UNCERTAINTY_MEASURE_WITH_UNIT (LENGTH_MEASURE( 1.000000000000000082E-05 ), #245, 'distance_accuracy_value', 'NONE');
#118 = CARTESIAN_POINT ( 'NONE',  ( 0.2500000000000000555, 0.1250000000000000000, 0.2449999999999999400 ) ) ;
#119 = VERTEX_POINT ( 'NONE', #252 ) ;
#120 = ADVANCED_FACE ( 'NONE', ( #165, #343 ), #73, .F. ) ;
#121 = CARTESIAN_POINT ( 'NONE',  ( 0.2450000000000000233, 0.1250000000000000000, 0.2499999999999999722 ) ) ;
#122 = DIRECTION ( 'NONE',  ( -1.000000000000000000, 0.000000000000000000, -0.000000000000000000 ) ) ;
#123 = ORIENTED_EDGE ( 'NONE', *, *, #220, .T. ) ;
#124 = EDGE_CURVE ( 'NONE', #393, #127, #313, .T. ) ;
#125 = DIRECTION ( 'NONE',  ( 0.000000000000000000, -1.000000000000000000, 0.000000000000000000 ) ) ;
#126 = ORIENTED_EDGE ( 'NONE', *, *, #139, .F. ) ;
#127 = VERTEX_POINT ( 'NONE', #310 ) ;
#128 = PLANE ( 'NONE',  #218 ) ;
#129 = ORIENTED_EDGE ( 'NONE', *, *, #49, .T. ) ;
#130 = APPLICATION_PROTOCOL_DEFINITION ( 'draft international standard', 'automotive_design', 1998, #356 ) ;
#131 = EDGE_LOOP ( 'NONE', ( #308 ) ) ;
#132 = FACE_OUTER_BOUND ( 'NONE', #395, .T. ) ;
#133 = VERTEX_POINT ( 'NONE', #108 ) ;
#134 = CARTESIAN_POINT ( 'NONE',  ( 0.2500000000000000555, 0.1250000000000000000, -0.2450000000000000233 ) ) ;
#135 = DIRECTION ( 'NONE',  ( 0.000000000000000000, 0.000000000000000000, 1.000000000000000000 ) ) ;
#136 = SHAPE_DEFINITION_REPRESENTATION ( #311, #87 ) ;
#137 = DIRECTION ( 'NONE',  ( 0.000000000000000000, 0.000000000000000000, -1.000000000000000000 ) ) ;
#138 = DIRECTION ( 'NONE',  ( 0.000000000000000000, 0.000000000000000000, -1.000000000000000000 ) ) ;
#139 = EDGE_CURVE ( 'NONE', #405, #340, #224, .T. ) ;
#140 = EDGE_LOOP ( 'NONE', ( #237, #321, #229, #364 ) ) ;
#141 = FACE_OUTER_BOUND ( 'NONE', #319, .T. ) ;
#142 = SURFACE_SIDE_STYLE ('',( #227 ) ) ;
#143 = VECTOR ( 'NONE', #339, 39.37007874015748143 ) ;
#144 = EDGE_LOOP ( 'NONE', ( #180 ) ) ;
#145 = EDGE_CURVE ( 'NONE', #100, #274, #45, .T. ) ;
#146 = DIRECTION ( 'NONE',  ( -0.000000000000000000, 1.000000000000000000, -0.000000000000000000 ) ) ;
#147 = LINE ( 'NONE', #20, #157 ) ;
#148 = DIRECTION ( 'NONE',  ( 0.000000000000000000, 0.000000000000000000, 1.000000000000000000 ) ) ;
#149 = VERTEX_POINT ( 'NONE', #303 ) ;
#150 = VECTOR ( 'NONE', #278, 39.37007874015748143 ) ;
#151 = DIRECTION ( 'NONE',  ( -0.000000000000000000, 1.000000000000000000, -0.000000000000000000 ) ) ;
#152 = ORIENTED_EDGE ( 'NONE', *, *, #392, .F. ) ;
#153 = DIRECTION ( 'NONE',  ( 0.000000000000000000, 0.000000000000000000, -1.000000000000000000 ) ) ;
#154 = DIRECTION ( 'NONE',  ( -0.000000000000000000, 1.000000000000000000, -0.000000000000000000 ) ) ;
#155 = FACE_OUTER_BOUND ( 'NONE', #140, .T. ) ;
#156 = ORIENTED_EDGE ( 'NONE', *, *, #106, .F. ) ;
#157 = VECTOR ( 'NONE', #228, 39.37007874015748143 ) ;
#158 = CARTESIAN_POINT ( 'NONE',  ( 0.2500000000000000555, 0.1250000000000000000, -0.2450000000000000233 ) ) ;
#159 = ORIENTED_EDGE ( 'NONE', *, *, #91, .T. ) ;
#160 = CARTESIAN_POINT ( 'NONE',  ( -0.2499999999999999722, 0.1250000000000000000, -0.2450000000000000233 ) ) ;
#161 = LINE ( 'NONE', #12, #359 ) ;
#162 = CLOSED_SHELL ( 'NONE', ( #195, #287, #183, #397, #120, #253, #72, #8, #14, #363, #315, #4 ) ) ;
#163 = DIMENSIONAL_EXPONENTS ( 1.000000000000000000, 0.000000000000000000, 0.000000000000000000, 0.000000000000000000, 0.000000000000000000, 0.000000000000000000, 0.000000000000000000 ) ;
#164 = DIRECTION ( 'NONE',  ( 0.000000000000000000, 0.000000000000000000, -1.000000000000000000 ) ) ;
#165 = FACE_BOUND ( 'NONE', #355, .T. ) ;
#166 = CARTESIAN_POINT ( 'NONE',  ( -0.2449999999999999400, 0.1250000000000000000, 0.2499999999999999722 ) ) ;
#167 = EDGE_CURVE ( 'NONE', #270, #28, #250, .T. ) ;
#168 = CIRCLE ( 'NONE', #262, 0.08849999999999985656 ) ;
#169 = CARTESIAN_POINT ( 'NONE',  ( 0.2450000000000000233, 0.1250000000000000000, -0.2500000000000000555 ) ) ;
#170 =( NAMED_UNIT ( * ) PLANE_ANGLE_UNIT ( ) SI_UNIT ( $, .RADIAN. ) );
#171 = ORIENTED_EDGE ( 'NONE', *, *, #91, .F. ) ;
#172 = CARTESIAN_POINT ( 'NONE',  ( -0.2449999999999999400, 0.000000000000000000, 0.2499999999999999722 ) ) ;
#173 = ORIENTED_EDGE ( 'NONE', *, *, #350, .T. ) ;
#174 = FACE_OUTER_BOUND ( 'NONE', #185, .T. ) ;
#175 = LENGTH_MEASURE_WITH_UNIT ( LENGTH_MEASURE( 0.02539999999999999897 ), #33 );
#176 = ORIENTED_EDGE ( 'NONE', *, *, #205, .T. ) ;
#177 = EDGE_LOOP ( 'NONE', ( #97, #126, #268, #58 ) ) ;
#178 = CIRCLE ( 'NONE', #348, 0.005000000000000014849 ) ;
#179 = DIRECTION ( 'NONE',  ( -0.000000000000000000, 1.000000000000000000, -0.000000000000000000 ) ) ;
#180 = ORIENTED_EDGE ( 'NONE', *, *, #333, .F. ) ;
#181 = CARTESIAN_POINT ( 'NONE',  ( -0.2449999999999999400, 0.1250000000000000000, 0.2449999999999999400 ) ) ;
#182 = ORIENTED_EDGE ( 'NONE', *, *, #29, .F. ) ;
#183 = ADVANCED_FACE ( 'NONE', ( #132 ), #246, .F. ) ;
#184 = DIRECTION ( 'NONE',  ( 0.000000000000000000, 0.000000000000000000, -1.000000000000000000 ) ) ;
#185 = EDGE_LOOP ( 'NONE', ( #388, #258, #182, #325 ) ) ;
#186 = DIRECTION ( 'NONE',  ( 0.000000000000000000, -1.000000000000000000, 0.000000000000000000 ) ) ;
#187 = CARTESIAN_POINT ( 'NONE',  ( -0.2499999999999999722, 0.1250000000000000000, 0.2499999999999999722 ) ) ;
#188 = CARTESIAN_POINT ( 'NONE',  ( -0.2499999999999999722, 0.000000000000000000, 0.2499999999999999722 ) ) ;
#189 = DIMENSIONAL_EXPONENTS ( 1.000000000000000000, 0.000000000000000000, 0.000000000000000000, 0.000000000000000000, 0.000000000000000000, 0.000000000000000000, 0.000000000000000000 ) ;
#190 = AXIS2_PLACEMENT_3D ( 'NONE', #63, #92, #271 ) ;
#191 = DIRECTION ( 'NONE',  ( 0.000000000000000000, 0.000000000000000000, 1.000000000000000000 ) ) ;
#192 = CARTESIAN_POINT ( 'NONE',  ( 0.000000000000000000, 0.1250000000000000000, 0.000000000000000000 ) ) ;
#193 = EDGE_CURVE ( 'NONE', #209, #340, #161, .T. ) ;
#194 = DIRECTION ( 'NONE',  ( 1.000000000000000000, 0.000000000000000000, -0.000000000000000000 ) ) ;
#195 = ADVANCED_FACE ( 'NONE', ( #141 ), #320, .F. ) ;
#196 = CYLINDRICAL_SURFACE ( 'NONE', #41, 0.08849999999999985656 ) ;
#197 = VERTEX_POINT ( 'NONE', #169 ) ;
#198 = DIRECTION ( 'NONE',  ( 0.000000000000000000, 0.000000000000000000, -1.000000000000000000 ) ) ;
#199 = ORIENTED_EDGE ( 'NONE', *, *, #139, .T. ) ;
#200 = DIRECTION ( 'NONE',  ( 0.000000000000000000, 0.000000000000000000, 1.000000000000000000 ) ) ;
#201 = PRESENTATION_LAYER_ASSIGNMENT (  '', '', ( #375 ) ) ;
#202 = ORIENTED_EDGE ( 'NONE', *, *, #282, .T. ) ;
#203 = FACE_OUTER_BOUND ( 'NONE', #131, .T. ) ;
#204 = ORIENTED_EDGE ( 'NONE', *, *, #29, .T. ) ;
#205 = EDGE_CURVE ( 'NONE', #133, #270, #235, .T. ) ;
#206 = CARTESIAN_POINT ( 'NONE',  ( 0.2500000000000000555, 0.000000000000000000, 0.2449999999999999400 ) ) ;
#207 = ORIENTED_EDGE ( 'NONE', *, *, #370, .T. ) ;
#208 = VERTEX_POINT ( 'NONE', #362 ) ;
#209 = VERTEX_POINT ( 'NONE', #386 ) ;
#210 = DIRECTION ( 'NONE',  ( -1.000000000000000000, -0.000000000000000000, -0.000000000000000000 ) ) ;
#211 = EDGE_CURVE ( 'NONE', #197, #149, #351, .T. ) ;
#212 = EDGE_LOOP ( 'NONE', ( #152, #260, #78, #272 ) ) ;
#213 = CARTESIAN_POINT ( 'NONE',  ( 0.000000000000000000, -3.414809992080329023E-17, 0.08849999999999985656 ) ) ;
#214 = PRODUCT_RELATED_PRODUCT_CATEGORY ( 'part', '', ( #3 ) ) ;
#215 = VERTEX_POINT ( 'NONE', #13 ) ;
#216 = CYLINDRICAL_SURFACE ( 'NONE', #389, 0.005000000000000014849 ) ;
#217 = AXIS2_PLACEMENT_3D ( 'NONE', #192, #377, #219 ) ;
#218 = AXIS2_PLACEMENT_3D ( 'NONE', #242, #184, #122 ) ;
#219 = DIRECTION ( 'NONE',  ( 0.000000000000000000, -0.000000000000000000, -1.000000000000000000 ) ) ;
#220 = EDGE_CURVE ( 'NONE', #393, #405, #259, .T. ) ;
#221 =( LENGTH_UNIT ( ) NAMED_UNIT ( * ) SI_UNIT ( $, .METRE. ) );
#222 = CYLINDRICAL_SURFACE ( 'NONE', #77, 0.005000000000000014849 ) ;
#223 = DIRECTION ( 'NONE',  ( 1.000000000000000000, 0.000000000000000000, 0.000000000000000000 ) ) ;
#224 = LINE ( 'NONE', #134, #18 ) ;
#225 = AXIS2_PLACEMENT_3D ( 'NONE', #69, #66, #191 ) ;
#226 = CARTESIAN_POINT ( 'NONE',  ( -0.2499999999999999722, 0.000000000000000000, 0.2499999999999999722 ) ) ;
#227 = SURFACE_STYLE_FILL_AREA ( #264 ) ;
#228 = DIRECTION ( 'NONE',  ( -0.000000000000000000, -0.000000000000000000, 1.000000000000000000 ) ) ;
#229 = ORIENTED_EDGE ( 'NONE', *, *, #124, .F. ) ;
#230 = AXIS2_PLACEMENT_3D ( 'NONE', #286, #265, #200 ) ;
#231 = DIRECTION ( 'NONE',  ( 0.000000000000000000, -0.000000000000000000, -1.000000000000000000 ) ) ;
#232 =( NAMED_UNIT ( * ) SI_UNIT ( $, .STERADIAN. ) SOLID_ANGLE_UNIT ( ) );
#233 =( LENGTH_UNIT ( ) NAMED_UNIT ( * ) SI_UNIT ( $, .METRE. ) );
#234 = LINE ( 'NONE', #269, #34 ) ;
#235 = CIRCLE ( 'NONE', #70, 0.005000000000000014849 ) ;
#236 = VERTEX_POINT ( 'NONE', #213 ) ;
#237 = ORIENTED_EDGE ( 'NONE', *, *, #337, .F. ) ;
#238 = CARTESIAN_POINT ( 'NONE',  ( 0.000000000000000000, 0.02031647494288795971, 0.08849999999999985656 ) ) ;
#239 = ORIENTED_EDGE ( 'NONE', *, *, #49, .F. ) ;
#240 =( NAMED_UNIT ( * ) PLANE_ANGLE_UNIT ( ) SI_UNIT ( $, .RADIAN. ) );
#241 = ORIENTED_EDGE ( 'NONE', *, *, #85, .F. ) ;
#242 = CARTESIAN_POINT ( 'NONE',  ( -0.2499999999999999722, 0.1250000000000000000, 0.2499999999999999722 ) ) ;
#243 = ORIENTED_EDGE ( 'NONE', *, *, #392, .T. ) ;
#244 = DIRECTION ( 'NONE',  ( 0.000000000000000000, -1.000000000000000000, 0.000000000000000000 ) ) ;
#245 =( CONVERSION_BASED_UNIT ( 'INCH', #42 ) LENGTH_UNIT ( ) NAMED_UNIT ( #189 ) );
#246 = PLANE ( 'NONE',  #61 ) ;
#247 = EDGE_CURVE ( 'NONE', #100, #380, #293, .T. ) ;
#248 = AXIS2_PLACEMENT_3D ( 'NONE', #298, #154, #403 ) ;
#249 = CIRCLE ( 'NONE', #190, 0.005000000000000014849 ) ;
#250 = LINE ( 'NONE', #160, #150 ) ;
#251 = FILL_AREA_STYLE_COLOUR ( '', #48 ) ;
#252 = CARTESIAN_POINT ( 'NONE',  ( -0.2499999999999999722, 0.000000000000000000, 0.2449999999999999400 ) ) ;
#253 = ADVANCED_FACE ( 'NONE', ( #345, #54 ), #16, .T. ) ;
#254 = DIRECTION ( 'NONE',  ( -0.000000000000000000, 1.000000000000000000, -0.000000000000000000 ) ) ;
#255 = PRODUCT_DEFINITION_FORMATION_WITH_SPECIFIED_SOURCE ( 'ANY', '', #3, .NOT_KNOWN. ) ;
#256 = DIRECTION ( 'NONE',  ( 1.000000000000000000, 0.000000000000000000, 0.000000000000000000 ) ) ;
#257 = CARTESIAN_POINT ( 'NONE',  ( 0.2450000000000000233, 0.1250000000000000000, -0.2500000000000000555 ) ) ;
#258 = ORIENTED_EDGE ( 'NONE', *, *, #292, .T. ) ;
#259 = LINE ( 'NONE', #312, #368 ) ;
#260 = ORIENTED_EDGE ( 'NONE', *, *, #22, .F. ) ;
#261 = AXIS2_PLACEMENT_3D ( 'NONE', #371, #254, #135 ) ;
#262 = AXIS2_PLACEMENT_3D ( 'NONE', #391, #151, #267 ) ;
#263 = PRESENTATION_STYLE_ASSIGNMENT (( #75 ) ) ;
#264 = FILL_AREA_STYLE ('',( #323 ) ) ;
#265 = DIRECTION ( 'NONE',  ( -1.000000000000000000, 0.000000000000000000, 0.000000000000000000 ) ) ;
#266 = VECTOR ( 'NONE', #404, 39.37007874015748143 ) ;
#267 = DIRECTION ( 'NONE',  ( 0.000000000000000000, 0.000000000000000000, 1.000000000000000000 ) ) ;
#268 = ORIENTED_EDGE ( 'NONE', *, *, #44, .F. ) ;
#269 = CARTESIAN_POINT ( 'NONE',  ( 0.2450000000000000233, 0.1250000000000000000, 0.2499999999999999722 ) ) ;
#270 = VERTEX_POINT ( 'NONE', #349 ) ;
#271 = DIRECTION ( 'NONE',  ( 0.000000000000000000, 0.000000000000000000, -1.000000000000000000 ) ) ;
#272 = ORIENTED_EDGE ( 'NONE', *, *, #145, .F. ) ;
#273 = CARTESIAN_POINT ( 'NONE',  ( -0.2449999999999999400, 0.000000000000000000, 0.2449999999999999400 ) ) ;
#274 = VERTEX_POINT ( 'NONE', #172 ) ;
#275 = COLOUR_RGB ( '',0.6980392156862744724, 0.6980392156862744724, 0.6980392156862744724 ) ;
#276 = PRESENTATION_LAYER_ASSIGNMENT (  '', '', ( #95 ) ) ;
#277 = FACE_OUTER_BOUND ( 'NONE', #302, .T. ) ;
#278 = DIRECTION ( 'NONE',  ( -0.000000000000000000, -1.000000000000000000, 0.000000000000000000 ) ) ;
#279 = LINE ( 'NONE', #188, #10 ) ;
#280 = VECTOR ( 'NONE', #288, 39.37007874015748143 ) ;
#281 = LINE ( 'NONE', #226, #143 ) ;
#282 = EDGE_CURVE ( 'NONE', #209, #393, #84, .T. ) ;
#283 = DIRECTION ( 'NONE',  ( 0.000000000000000000, -1.000000000000000000, 0.000000000000000000 ) ) ;
#284 = DIRECTION ( 'NONE',  ( 0.000000000000000000, -1.000000000000000000, 0.000000000000000000 ) ) ;
#285 = EDGE_LOOP ( 'NONE', ( #93, #55, #156, #47 ) ) ;
#286 = CARTESIAN_POINT ( 'NONE',  ( 0.2500000000000000555, 0.1250000000000000000, 0.2499999999999999722 ) ) ;
#287 = ADVANCED_FACE ( 'NONE', ( #174 ), #50, .F. ) ;
#288 = DIRECTION ( 'NONE',  ( 0.000000000000000000, -1.000000000000000000, 0.000000000000000000 ) ) ;
#289 = CIRCLE ( 'NONE', #390, 0.005000000000000014849 ) ;
#290 = DIRECTION ( 'NONE',  ( 0.000000000000000000, 0.000000000000000000, 1.000000000000000000 ) ) ;
#291 = ORIENTED_EDGE ( 'NONE', *, *, #22, .T. ) ;
#292 = EDGE_CURVE ( 'NONE', #317, #133, #114, .T. ) ;
#293 = LINE ( 'NONE', #82, #342 ) ;
#294 = ORIENTED_EDGE ( 'NONE', *, *, #80, .T. ) ;
#295 = AXIS2_PLACEMENT_3D ( 'NONE', #379, #347, #231 ) ;
#296 = CYLINDRICAL_SURFACE ( 'NONE', #101, 0.005000000000000014849 ) ;
#297 = EDGE_CURVE ( 'NONE', #270, #215, #147, .T. ) ;
#298 = CARTESIAN_POINT ( 'NONE',  ( 0.000000000000000000, 0.1250000000000000000, 0.000000000000000000 ) ) ;
#299 = ORIENTED_EDGE ( 'NONE', *, *, #193, .T. ) ;
#300 = FACE_OUTER_BOUND ( 'NONE', #26, .T. ) ;
#301 = EDGE_LOOP ( 'NONE', ( #241 ) ) ;
#302 = EDGE_LOOP ( 'NONE', ( #129 ) ) ;
#303 = CARTESIAN_POINT ( 'NONE',  ( 0.2450000000000000233, 0.000000000000000000, -0.2500000000000000555 ) ) ;
#304 = MANIFOLD_SOLID_BREP ( 'CSK for #8 Flat Head Socket Cap Screw1', #162 ) ;
#305 =( NAMED_UNIT ( * ) PLANE_ANGLE_UNIT ( ) SI_UNIT ( $, .RADIAN. ) );
#306 = DIRECTION ( 'NONE',  ( 1.000000000000000000, -0.000000000000000000, 0.000000000000000000 ) ) ;
#307 = LINE ( 'NONE', #309, #266 ) ;
#308 = ORIENTED_EDGE ( 'NONE', *, *, #333, .T. ) ;
#309 = CARTESIAN_POINT ( 'NONE',  ( -0.2499999999999999722, 0.1250000000000000000, 0.2449999999999999400 ) ) ;
#310 = CARTESIAN_POINT ( 'NONE',  ( 0.2450000000000000233, 0.000000000000000000, 0.2499999999999999722 ) ) ;
#311 = PRODUCT_DEFINITION_SHAPE ( 'NONE', 'NONE',  #402 ) ;
#312 = CARTESIAN_POINT ( 'NONE',  ( 0.2500000000000000555, 0.000000000000000000, 0.2499999999999999722 ) ) ;
#313 = CIRCLE ( 'NONE', #1, 0.005000000000000014849 ) ;
#314 = MECHANICAL_DESIGN_GEOMETRIC_PRESENTATION_REPRESENTATION (  '', ( #95 ), #116 ) ;
#315 = ADVANCED_FACE ( 'NONE', ( #30, #203 ), #196, .F. ) ;
#316 = DIRECTION ( 'NONE',  ( 0.000000000000000000, 0.000000000000000000, -1.000000000000000000 ) ) ;
#317 = VERTEX_POINT ( 'NONE', #331 ) ;
#318 = DIRECTION ( 'NONE',  ( 0.000000000000000000, 0.000000000000000000, -1.000000000000000000 ) ) ;
#319 = EDGE_LOOP ( 'NONE', ( #123, #199, #383, #202 ) ) ;
#320 = PLANE ( 'NONE',  #230 ) ;
#321 = ORIENTED_EDGE ( 'NONE', *, *, #346, .F. ) ;
#322 = CONICAL_SURFACE ( 'NONE', #248, 0.1794999999999999929, 0.7155849933176751110 ) ;
#323 = FILL_AREA_STYLE_COLOUR ( '', #275 ) ;
#324 = CARTESIAN_POINT ( 'NONE',  ( 0.2500000000000000555, 0.000000000000000000, -0.2450000000000000233 ) ) ;
#325 = ORIENTED_EDGE ( 'NONE', *, *, #211, .T. ) ;
#326 = ORIENTED_EDGE ( 'NONE', *, *, #167, .T. ) ;
#327 = CIRCLE ( 'NONE', #261, 0.1794999999999999929 ) ;
#328 = DIRECTION ( 'NONE',  ( -0.000000000000000000, 1.000000000000000000, -0.000000000000000000 ) ) ;
#329 = FACE_BOUND ( 'NONE', #144, .T. ) ;
#330 = FACE_OUTER_BOUND ( 'NONE', #212, .T. ) ;
#331 = CARTESIAN_POINT ( 'NONE',  ( -0.2449999999999999400, 0.000000000000000000, -0.2500000000000000555 ) ) ;
#332 = ORIENTED_EDGE ( 'NONE', *, *, #247, .T. ) ;
#333 = EDGE_CURVE ( 'NONE', #57, #57, #168, .T. ) ;
#334 = AXIS2_PLACEMENT_3D ( 'NONE', #396, #244, #365 ) ;
#335 = CARTESIAN_POINT ( 'NONE',  ( 0.2450000000000000233, 0.000000000000000000, -0.2450000000000000233 ) ) ;
#336 = DIRECTION ( 'NONE',  ( 0.000000000000000000, 0.000000000000000000, -1.000000000000000000 ) ) ;
#337 = EDGE_CURVE ( 'NONE', #380, #209, #249, .T. ) ;
#338 = SURFACE_STYLE_FILL_AREA ( #107 ) ;
#339 = DIRECTION ( 'NONE',  ( -0.000000000000000000, -0.000000000000000000, 1.000000000000000000 ) ) ;
#340 = VERTEX_POINT ( 'NONE', #158 ) ;
#341 = DIRECTION ( 'NONE',  ( -0.000000000000000000, 1.000000000000000000, -0.000000000000000000 ) ) ;
#342 = VECTOR ( 'NONE', #21, 39.37007874015748143 ) ;
#343 = FACE_OUTER_BOUND ( 'NONE', #51, .T. ) ;
#344 = DIMENSIONAL_EXPONENTS ( 1.000000000000000000, 0.000000000000000000, 0.000000000000000000, 0.000000000000000000, 0.000000000000000000, 0.000000000000000000, 0.000000000000000000 ) ;
#345 = FACE_BOUND ( 'NONE', #401, .T. ) ;
#346 = EDGE_CURVE ( 'NONE', #127, #380, #234, .T. ) ;
#347 = DIRECTION ( 'NONE',  ( 0.000000000000000000, -1.000000000000000000, 0.000000000000000000 ) ) ;
#348 = AXIS2_PLACEMENT_3D ( 'NONE', #335, #369, #7 ) ;
#349 = CARTESIAN_POINT ( 'NONE',  ( -0.2499999999999999722, 0.1250000000000000000, -0.2450000000000000233 ) ) ;
#350 = EDGE_CURVE ( 'NONE', #274, #119, #289, .T. ) ;
#351 = LINE ( 'NONE', #257, #86 ) ;
#352 = ORIENTED_EDGE ( 'NONE', *, *, #297, .T. ) ;
#353 = DIRECTION ( 'NONE',  ( 0.000000000000000000, 0.000000000000000000, -1.000000000000000000 ) ) ;
#354 = CARTESIAN_POINT ( 'NONE',  ( -0.2499999999999999722, 0.000000000000000000, -0.2500000000000000555 ) ) ;
#355 = EDGE_LOOP ( 'NONE', ( #239 ) ) ;
#356 = APPLICATION_CONTEXT ( 'automotive_design' ) ;
#357 =( CONVERSION_BASED_UNIT ( 'INCH', #175 ) LENGTH_UNIT ( ) NAMED_UNIT ( #163 ) );
#358 = ORIENTED_EDGE ( 'NONE', *, *, #247, .F. ) ;
#359 = VECTOR ( 'NONE', #198, 39.37007874015748143 ) ;
#360 =( GEOMETRIC_REPRESENTATION_CONTEXT ( 3 ) GLOBAL_UNCERTAINTY_ASSIGNED_CONTEXT ( ( #381 ) ) GLOBAL_UNIT_ASSIGNED_CONTEXT ( ( #357, #240, #96 ) ) REPRESENTATION_CONTEXT ( 'NONE', 'WORKASPACE' ) );
#361 = ORIENTED_EDGE ( 'NONE', *, *, #80, .F. ) ;
#362 = CARTESIAN_POINT ( 'NONE',  ( 0.000000000000000000, 0.1250000000000000000, 0.1794999999999999929 ) ) ;
#363 = ADVANCED_FACE ( 'NONE', ( #155 ), #296, .T. ) ;
#364 = ORIENTED_EDGE ( 'NONE', *, *, #282, .F. ) ;
#365 = DIRECTION ( 'NONE',  ( 0.000000000000000000, 0.000000000000000000, -1.000000000000000000 ) ) ;
#366 = UNCERTAINTY_MEASURE_WITH_UNIT (LENGTH_MEASURE( 1.000000000000000082E-05 ), #53, 'distance_accuracy_value', 'NONE');
#367 = DIRECTION ( 'NONE',  ( 0.000000000000000000, 0.000000000000000000, 1.000000000000000000 ) ) ;
#368 = VECTOR ( 'NONE', #318, 39.37007874015748143 ) ;
#369 = DIRECTION ( 'NONE',  ( 0.000000000000000000, -1.000000000000000000, 0.000000000000000000 ) ) ;
#370 = EDGE_CURVE ( 'NONE', #340, #197, #11, .T. ) ;
#371 = CARTESIAN_POINT ( 'NONE',  ( 0.000000000000000000, 0.1250000000000000000, 0.000000000000000000 ) ) ;
#372 = DIRECTION ( 'NONE',  ( 0.000000000000000000, -1.000000000000000000, 0.000000000000000000 ) ) ;
#373 = SURFACE_STYLE_USAGE ( .BOTH. , #6 ) ;
#374 = DIRECTION ( 'NONE',  ( -0.000000000000000000, -1.000000000000000000, 0.000000000000000000 ) ) ;
#375 = STYLED_ITEM ( 'NONE', ( #263 ), #304 ) ;
#376 =( GEOMETRIC_REPRESENTATION_CONTEXT ( 3 ) GLOBAL_UNCERTAINTY_ASSIGNED_CONTEXT ( ( #366 ) ) GLOBAL_UNIT_ASSIGNED_CONTEXT ( ( #53, #170, #232 ) ) REPRESENTATION_CONTEXT ( 'NONE', 'WORKASPACE' ) );
#377 = DIRECTION ( 'NONE',  ( 0.000000000000000000, -1.000000000000000000, 0.000000000000000000 ) ) ;
#378 = EDGE_CURVE ( 'NONE', #149, #317, #399, .T. ) ;
#379 = CARTESIAN_POINT ( 'NONE',  ( 0.000000000000000000, 0.000000000000000000, 0.000000000000000000 ) ) ;
#380 = VERTEX_POINT ( 'NONE', #121 ) ;
#381 = UNCERTAINTY_MEASURE_WITH_UNIT (LENGTH_MEASURE( 1.000000000000000082E-05 ), #357, 'distance_accuracy_value', 'NONE');
#382 = CARTESIAN_POINT ( 'NONE',  ( -0.2449999999999999400, 0.1250000000000000000, -0.2450000000000000233 ) ) ;
#383 = ORIENTED_EDGE ( 'NONE', *, *, #193, .F. ) ;
#384 = CIRCLE ( 'NONE', #225, 0.08849999999999985656 ) ;
#385 = AXIS2_PLACEMENT_3D ( 'NONE', #181, #88, #153 ) ;
#386 = CARTESIAN_POINT ( 'NONE',  ( 0.2500000000000000555, 0.1250000000000000000, 0.2449999999999999400 ) ) ;
#387 = DIRECTION ( 'NONE',  ( 0.000000000000000000, 0.000000000000000000, -1.000000000000000000 ) ) ;
#388 = ORIENTED_EDGE ( 'NONE', *, *, #378, .T. ) ;
#389 = AXIS2_PLACEMENT_3D ( 'NONE', #9, #374, #138 ) ;
#390 = AXIS2_PLACEMENT_3D ( 'NONE', #273, #59, #89 ) ;
#391 = CARTESIAN_POINT ( 'NONE',  ( 0.000000000000000000, 0.02031647494288795971, 0.000000000000000000 ) ) ;
#392 = EDGE_CURVE ( 'NONE', #215, #100, #79, .T. ) ;
#393 = VERTEX_POINT ( 'NONE', #206 ) ;
#394 = CARTESIAN_POINT ( 'NONE',  ( 0.2450000000000000233, 0.1250000000000000000, 0.2449999999999999400 ) ) ;
#395 = EDGE_LOOP ( 'NONE', ( #60, #326, #294, #291 ) ) ;
#396 = CARTESIAN_POINT ( 'NONE',  ( -0.2449999999999999400, 0.1250000000000000000, 0.2449999999999999400 ) ) ;
#397 = ADVANCED_FACE ( 'NONE', ( #300 ), #128, .F. ) ;
#398 = AXIS2_PLACEMENT_3D ( 'NONE', #76, #290, #194 ) ;
#399 = LINE ( 'NONE', #354, #112 ) ;
#400 = AXIS2_PLACEMENT_3D ( 'NONE', #25, #179, #353 ) ;
#401 = EDGE_LOOP ( 'NONE', ( #23 ) ) ;
#402 = PRODUCT_DEFINITION ( 'UNKNOWN', '', #255, #74 ) ;
#403 = DIRECTION ( 'NONE',  ( 0.000000000000000000, 0.000000000000000000, 1.000000000000000000 ) ) ;
#404 = DIRECTION ( 'NONE',  ( 0.000000000000000000, 1.000000000000000000, -0.000000000000000000 ) ) ;
#405 = VERTEX_POINT ( 'NONE', #324 ) ;
ENDSEC;
END-ISO-10303-21;
