ISO-10303-21;
HEADER;
FILE_DESCRIPTION (( 'STEP AP214' ),
    '1' );
FILE_NAME ('CARBIDE PAD_IBF-5200-100.STEP',
    '2023-05-16T13:22:30',
    ( '' ),
    ( '' ),
    'SwSTEP 2.0',
    'SolidWorks 2022',
    '' );
FILE_SCHEMA (( 'AUTOMOTIVE_DESIGN' ));
ENDSEC;

DATA;
#1 = EDGE_LOOP ( 'NONE', ( #173, #21, #143, #339 ) ) ;
#2 = DIRECTION ( 'NONE',  ( 0.000000000000000000, -0.000000000000000000, -1.000000000000000000 ) ) ;
#3 = ADVANCED_FACE ( 'NONE', ( #212, #213 ), #273, .F. ) ;
#4 = DIRECTION ( 'NONE',  ( 0.000000000000000000, 0.000000000000000000, -1.000000000000000000 ) ) ;
#5 = DIRECTION ( 'NONE',  ( 1.000000000000000000, 0.000000000000000000, 0.000000000000000000 ) ) ;
#6 = CYLINDRICAL_SURFACE ( 'NONE', #124, 0.005000000000000014849 ) ;
#7 = DIRECTION ( 'NONE',  ( 0.000000000000000000, -0.000000000000000000, -1.000000000000000000 ) ) ;
#8 = AXIS2_PLACEMENT_3D ( 'NONE', #348, #35, #2 ) ;
#9 = DIRECTION ( 'NONE',  ( 0.000000000000000000, 0.000000000000000000, -1.000000000000000000 ) ) ;
#10 = AXIS2_PLACEMENT_3D ( 'NONE', #42, #326, #255 ) ;
#11 = EDGE_CURVE ( 'NONE', #309, #13, #85, .T. ) ;
#12 = CARTESIAN_POINT ( 'NONE',  ( 0.2500000000000000555, 0.000000000000000000, 0.2499999999999999722 ) ) ;
#13 = VERTEX_POINT ( 'NONE', #400 ) ;
#14 = CARTESIAN_POINT ( 'NONE',  ( -0.2499999999999999722, 0.1250000000000000000, 0.2449999999999999400 ) ) ;
#15 = EDGE_CURVE ( 'NONE', #138, #179, #229, .T. ) ;
#16 = EDGE_LOOP ( 'NONE', ( #119, #299, #90, #270 ) ) ;
#17 = CARTESIAN_POINT ( 'NONE',  ( -0.2499999999999999722, 0.000000000000000000, 0.2499999999999999722 ) ) ;
#18 = CLOSED_SHELL ( 'NONE', ( #340, #87, #188, #247, #164, #225, #232, #307, #96, #399, #3, #367 ) ) ;
#19 = AXIS2_PLACEMENT_3D ( 'NONE', #390, #261, #389 ) ;
#20 = ADVANCED_BREP_SHAPE_REPRESENTATION ( 'CARBIDE PAD_IBF-5200-100', ( #279, #65 ), #118 ) ;
#21 = ORIENTED_EDGE ( 'NONE', *, *, #315, .T. ) ;
#22 = ORIENTED_EDGE ( 'NONE', *, *, #346, .F. ) ;
#23 = EDGE_LOOP ( 'NONE', ( #78 ) ) ;
#24 = CYLINDRICAL_SURFACE ( 'NONE', #142, 0.005000000000000014849 ) ;
#25 = AXIS2_PLACEMENT_3D ( 'NONE', #285, #291, #7 ) ;
#26 = EDGE_CURVE ( 'NONE', #45, #45, #177, .T. ) ;
#27 = CARTESIAN_POINT ( 'NONE',  ( 0.2450000000000000233, 0.000000000000000000, -0.2450000000000000233 ) ) ;
#28 = DIRECTION ( 'NONE',  ( 0.000000000000000000, -1.000000000000000000, 0.000000000000000000 ) ) ;
#29 = VERTEX_POINT ( 'NONE', #95 ) ;
#30 = APPLICATION_PROTOCOL_DEFINITION ( 'draft international standard', 'automotive_design', 1998, #373 ) ;
#31 = EDGE_CURVE ( 'NONE', #92, #395, #89, .T. ) ;
#32 = VERTEX_POINT ( 'NONE', #347 ) ;
#33 = AXIS2_PLACEMENT_3D ( 'NONE', #355, #268, #53 ) ;
#34 = CARTESIAN_POINT ( 'NONE',  ( 0.2450000000000000233, 0.1250000000000000000, -0.2500000000000000555 ) ) ;
#35 = DIRECTION ( 'NONE',  ( 0.000000000000000000, -1.000000000000000000, 0.000000000000000000 ) ) ;
#36 = CARTESIAN_POINT ( 'NONE',  ( -0.2499999999999999722, 0.000000000000000000, 0.2499999999999999722 ) ) ;
#37 = CYLINDRICAL_SURFACE ( 'NONE', #289, 0.005000000000000014849 ) ;
#38 = CIRCLE ( 'NONE', #10, 0.005000000000000014849 ) ;
#39 = DIRECTION ( 'NONE',  ( -0.000000000000000000, 1.000000000000000000, -0.000000000000000000 ) ) ;
#40 = FACE_OUTER_BOUND ( 'NONE', #204, .T. ) ;
#41 = CARTESIAN_POINT ( 'NONE',  ( 0.2500000000000000555, 0.1250000000000000000, -0.2450000000000000233 ) ) ;
#42 = CARTESIAN_POINT ( 'NONE',  ( -0.2449999999999999400, 0.1250000000000000000, 0.2449999999999999400 ) ) ;
#43 = CIRCLE ( 'NONE', #135, 0.005000000000000014849 ) ;
#44 = DIRECTION ( 'NONE',  ( 0.000000000000000000, -1.000000000000000000, 0.000000000000000000 ) ) ;
#45 = VERTEX_POINT ( 'NONE', #231 ) ;
#46 = VERTEX_POINT ( 'NONE', #311 ) ;
#47 = VERTEX_POINT ( 'NONE', #141 ) ;
#48 = ORIENTED_EDGE ( 'NONE', *, *, #241, .F. ) ;
#49 = LENGTH_MEASURE_WITH_UNIT ( LENGTH_MEASURE( 0.02539999999999999897 ), #360 );
#50 = CIRCLE ( 'NONE', #352, 0.005000000000000014849 ) ;
#51 = VECTOR ( 'NONE', #203, 39.37007874015748143 ) ;
#52 = ORIENTED_EDGE ( 'NONE', *, *, #330, .F. ) ;
#53 = DIRECTION ( 'NONE',  ( 0.000000000000000000, 0.000000000000000000, 1.000000000000000000 ) ) ;
#54 = VERTEX_POINT ( 'NONE', #149 ) ;
#55 = EDGE_CURVE ( 'NONE', #395, #331, #185, .T. ) ;
#56 = EDGE_LOOP ( 'NONE', ( #129, #166, #140, #364 ) ) ;
#57 = VECTOR ( 'NONE', #103, 39.37007874015748143 ) ;
#58 = ORIENTED_EDGE ( 'NONE', *, *, #115, .F. ) ;
#59 = DIRECTION ( 'NONE',  ( 0.000000000000000000, -1.000000000000000000, 0.000000000000000000 ) ) ;
#60 = DIRECTION ( 'NONE',  ( 1.000000000000000000, 0.000000000000000000, 0.000000000000000000 ) ) ;
#61 = DIRECTION ( 'NONE',  ( 0.000000000000000000, 0.000000000000000000, -1.000000000000000000 ) ) ;
#62 = APPLICATION_PROTOCOL_DEFINITION ( 'draft international standard', 'automotive_design', 1998, #303 ) ;
#63 = AXIS2_PLACEMENT_3D ( 'NONE', #97, #221, #353 ) ;
#64 = CARTESIAN_POINT ( 'NONE',  ( -0.2449999999999999400, 0.000000000000000000, -0.2450000000000000233 ) ) ;
#65 = AXIS2_PLACEMENT_3D ( 'NONE', #250, #93, #60 ) ;
#66 = CARTESIAN_POINT ( 'NONE',  ( -0.2449999999999999400, 0.1250000000000000000, -0.2500000000000000555 ) ) ;
#67 =( NAMED_UNIT ( * ) SI_UNIT ( $, .STERADIAN. ) SOLID_ANGLE_UNIT ( ) );
#68 = DIRECTION ( 'NONE',  ( -0.000000000000000000, -0.000000000000000000, 1.000000000000000000 ) ) ;
#69 = CARTESIAN_POINT ( 'NONE',  ( -0.2499999999999999722, 0.000000000000000000, 0.2449999999999999400 ) ) ;
#70 = PRESENTATION_STYLE_ASSIGNMENT (( #351 ) ) ;
#71 = EDGE_CURVE ( 'NONE', #398, #295, #50, .T. ) ;
#72 =( CONVERSION_BASED_UNIT ( 'INCH', #74 ) LENGTH_UNIT ( ) NAMED_UNIT ( #277 ) );
#73 = CARTESIAN_POINT ( 'NONE',  ( -0.2499999999999999722, 0.1250000000000000000, 0.2499999999999999722 ) ) ;
#74 = LENGTH_MEASURE_WITH_UNIT ( LENGTH_MEASURE( 0.02539999999999999897 ), #226 );
#75 = AXIS2_PLACEMENT_3D ( 'NONE', #160, #134, #4 ) ;
#76 = ORIENTED_EDGE ( 'NONE', *, *, #15, .F. ) ;
#77 = LINE ( 'NONE', #14, #82 ) ;
#78 = ORIENTED_EDGE ( 'NONE', *, *, #26, .T. ) ;
#79 = CARTESIAN_POINT ( 'NONE',  ( 0.2450000000000000233, 0.1250000000000000000, -0.2450000000000000233 ) ) ;
#80 = ORIENTED_EDGE ( 'NONE', *, *, #354, .T. ) ;
#81 = CARTESIAN_POINT ( 'NONE',  ( 0.2450000000000000233, 0.000000000000000000, -0.2500000000000000555 ) ) ;
#82 = VECTOR ( 'NONE', #139, 39.37007874015748143 ) ;
#83 = DIRECTION ( 'NONE',  ( 0.000000000000000000, -1.000000000000000000, 0.000000000000000000 ) ) ;
#84 = ORIENTED_EDGE ( 'NONE', *, *, #301, .T. ) ;
#85 = LINE ( 'NONE', #368, #297 ) ;
#86 = SURFACE_STYLE_FILL_AREA ( #127 ) ;
#87 = ADVANCED_FACE ( 'NONE', ( #278 ), #377, .F. ) ;
#88 = CIRCLE ( 'NONE', #236, 0.1794999999999999929 ) ;
#89 = LINE ( 'NONE', #34, #162 ) ;
#90 = ORIENTED_EDGE ( 'NONE', *, *, #286, .F. ) ;
#91 =( NAMED_UNIT ( * ) SI_UNIT ( $, .STERADIAN. ) SOLID_ANGLE_UNIT ( ) );
#92 = VERTEX_POINT ( 'NONE', #271 ) ;
#93 = DIRECTION ( 'NONE',  ( 0.000000000000000000, 0.000000000000000000, 1.000000000000000000 ) ) ;
#94 = VECTOR ( 'NONE', #192, 39.37007874015748143 ) ;
#95 = CARTESIAN_POINT ( 'NONE',  ( 0.2500000000000000555, 0.1250000000000000000, 0.2449999999999999400 ) ) ;
#96 = ADVANCED_FACE ( 'NONE', ( #243 ), #244, .T. ) ;
#97 = CARTESIAN_POINT ( 'NONE',  ( -0.2499999999999999722, 0.1250000000000000000, 0.2499999999999999722 ) ) ;
#98 = LINE ( 'NONE', #73, #170 ) ;
#99 = SURFACE_SIDE_STYLE ('',( #379 ) ) ;
#100 = CARTESIAN_POINT ( 'NONE',  ( -0.2499999999999999722, 0.1250000000000000000, -0.2450000000000000233 ) ) ;
#101 = CARTESIAN_POINT ( 'NONE',  ( -0.2449999999999999400, 0.1250000000000000000, -0.2500000000000000555 ) ) ;
#102 = EDGE_CURVE ( 'NONE', #46, #29, #43, .T. ) ;
#103 = DIRECTION ( 'NONE',  ( 0.000000000000000000, 0.000000000000000000, -1.000000000000000000 ) ) ;
#104 = VECTOR ( 'NONE', #227, 39.37007874015748143 ) ;
#105 = CARTESIAN_POINT ( 'NONE',  ( -0.2449999999999999400, 0.1250000000000000000, 0.2499999999999999722 ) ) ;
#106 = FACE_OUTER_BOUND ( 'NONE', #336, .T. ) ;
#107 = DIRECTION ( 'NONE',  ( -0.000000000000000000, 1.000000000000000000, -0.000000000000000000 ) ) ;
#108 = DIRECTION ( 'NONE',  ( -0.000000000000000000, 1.000000000000000000, -0.000000000000000000 ) ) ;
#109 = EDGE_LOOP ( 'NONE', ( #125, #199, #233, #182 ) ) ;
#110 = DIRECTION ( 'NONE',  ( 0.000000000000000000, -1.000000000000000000, 0.000000000000000000 ) ) ;
#111 = ORIENTED_EDGE ( 'NONE', *, *, #280, .F. ) ;
#112 = CARTESIAN_POINT ( 'NONE',  ( -0.2499999999999999722, 0.000000000000000000, -0.2450000000000000233 ) ) ;
#113 = ORIENTED_EDGE ( 'NONE', *, *, #349, .T. ) ;
#114 =( NAMED_UNIT ( * ) SI_UNIT ( $, .STERADIAN. ) SOLID_ANGLE_UNIT ( ) );
#115 = EDGE_CURVE ( 'NONE', #32, #230, #98, .T. ) ;
#116 = VERTEX_POINT ( 'NONE', #66 ) ;
#117 = FACE_OUTER_BOUND ( 'NONE', #1, .T. ) ;
#118 =( GEOMETRIC_REPRESENTATION_CONTEXT ( 3 ) GLOBAL_UNCERTAINTY_ASSIGNED_CONTEXT ( ( #194 ) ) GLOBAL_UNIT_ASSIGNED_CONTEXT ( ( #171, #198, #114 ) ) REPRESENTATION_CONTEXT ( 'NONE', 'WORKASPACE' ) );
#119 = ORIENTED_EDGE ( 'NONE', *, *, #330, .T. ) ;
#120 = CARTESIAN_POINT ( 'NONE',  ( 0.2450000000000000233, 0.000000000000000000, 0.2449999999999999400 ) ) ;
#121 = EDGE_CURVE ( 'NONE', #230, #309, #38, .T. ) ;
#122 = DIRECTION ( 'NONE',  ( 1.000000000000000000, 0.000000000000000000, -0.000000000000000000 ) ) ;
#123 = AXIS2_PLACEMENT_3D ( 'NONE', #27, #215, #405 ) ;
#124 = AXIS2_PLACEMENT_3D ( 'NONE', #383, #44, #9 ) ;
#125 = ORIENTED_EDGE ( 'NONE', *, *, #128, .F. ) ;
#126 = DIRECTION ( 'NONE',  ( 0.000000000000000000, -1.000000000000000000, 0.000000000000000000 ) ) ;
#127 = FILL_AREA_STYLE ('',( #152 ) ) ;
#128 = EDGE_CURVE ( 'NONE', #309, #46, #223, .T. ) ;
#129 = ORIENTED_EDGE ( 'NONE', *, *, #121, .F. ) ;
#130 = CIRCLE ( 'NONE', #319, 0.005000000000000014849 ) ;
#131 = DIRECTION ( 'NONE',  ( -0.000000000000000000, 1.000000000000000000, -0.000000000000000000 ) ) ;
#132 = FILL_AREA_STYLE_COLOUR ( '', #147 ) ;
#133 = LINE ( 'NONE', #258, #184 ) ;
#134 = DIRECTION ( 'NONE',  ( 1.000000000000000000, -0.000000000000000000, 0.000000000000000000 ) ) ;
#135 = AXIS2_PLACEMENT_3D ( 'NONE', #281, #131, #156 ) ;
#136 = LINE ( 'NONE', #101, #328 ) ;
#137 = LINE ( 'NONE', #253, #57 ) ;
#138 = VERTEX_POINT ( 'NONE', #158 ) ;
#139 = DIRECTION ( 'NONE',  ( 0.000000000000000000, 1.000000000000000000, -0.000000000000000000 ) ) ;
#140 = ORIENTED_EDGE ( 'NONE', *, *, #301, .F. ) ;
#141 = CARTESIAN_POINT ( 'NONE',  ( 0.000000000000000000, 0.1250000000000000000, 0.1794999999999999929 ) ) ;
#142 = AXIS2_PLACEMENT_3D ( 'NONE', #239, #83, #332 ) ;
#143 = ORIENTED_EDGE ( 'NONE', *, *, #183, .F. ) ;
#144 = ORIENTED_EDGE ( 'NONE', *, *, #241, .T. ) ;
#145 = FACE_OUTER_BOUND ( 'NONE', #402, .T. ) ;
#146 = ORIENTED_EDGE ( 'NONE', *, *, #168, .F. ) ;
#147 = COLOUR_RGB ( '',0.6980392156862744724, 0.6980392156862744724, 0.6980392156862744724 ) ;
#148 = ORIENTED_EDGE ( 'NONE', *, *, #216, .T. ) ;
#149 = CARTESIAN_POINT ( 'NONE',  ( 0.2500000000000000555, 0.1250000000000000000, -0.2450000000000000233 ) ) ;
#150 = SURFACE_STYLE_USAGE ( .BOTH. , #310 ) ;
#151 = EDGE_LOOP ( 'NONE', ( #48 ) ) ;
#152 = FILL_AREA_STYLE_COLOUR ( '', #240 ) ;
#153 = CIRCLE ( 'NONE', #246, 0.005000000000000014849 ) ;
#154 = EDGE_LOOP ( 'NONE', ( #22 ) ) ;
#155 = CARTESIAN_POINT ( 'NONE',  ( 0.000000000000000000, 0.02031647494288795971, 0.000000000000000000 ) ) ;
#156 = DIRECTION ( 'NONE',  ( 0.000000000000000000, 0.000000000000000000, -1.000000000000000000 ) ) ;
#157 = CARTESIAN_POINT ( 'NONE',  ( -0.2449999999999999400, 0.1250000000000000000, -0.2450000000000000233 ) ) ;
#158 = CARTESIAN_POINT ( 'NONE',  ( 0.2500000000000000555, 0.000000000000000000, 0.2449999999999999400 ) ) ;
#159 = FACE_OUTER_BOUND ( 'NONE', #56, .T. ) ;
#160 = CARTESIAN_POINT ( 'NONE',  ( -0.2499999999999999722, 0.1250000000000000000, 0.2499999999999999722 ) ) ;
#161 = CARTESIAN_POINT ( 'NONE',  ( -0.2499999999999999722, 0.1250000000000000000, 0.2499999999999999722 ) ) ;
#162 = VECTOR ( 'NONE', #28, 39.37007874015748143 ) ;
#163 = LINE ( 'NONE', #41, #290 ) ;
#164 = ADVANCED_FACE ( 'NONE', ( #288, #381 ), #193, .F. ) ;
#165 = DIRECTION ( 'NONE',  ( -0.000000000000000000, 1.000000000000000000, -0.000000000000000000 ) ) ;
#166 = ORIENTED_EDGE ( 'NONE', *, *, #349, .F. ) ;
#167 = FACE_OUTER_BOUND ( 'NONE', #209, .T. ) ;
#168 = EDGE_CURVE ( 'NONE', #138, #331, #380, .T. ) ;
#169 = ORIENTED_EDGE ( 'NONE', *, *, #315, .F. ) ;
#170 = VECTOR ( 'NONE', #68, 39.37007874015748143 ) ;
#171 =( CONVERSION_BASED_UNIT ( 'INCH', #49 ) LENGTH_UNIT ( ) NAMED_UNIT ( #322 ) );
#172 = STYLED_ITEM ( 'NONE', ( #210 ), #20 ) ;
#173 = ORIENTED_EDGE ( 'NONE', *, *, #168, .T. ) ;
#174 = ORIENTED_EDGE ( 'NONE', *, *, #71, .F. ) ;
#175 = LINE ( 'NONE', #393, #312 ) ;
#176 = DIRECTION ( 'NONE',  ( 0.000000000000000000, 0.000000000000000000, 1.000000000000000000 ) ) ;
#177 = CIRCLE ( 'NONE', #214, 0.08849999999999985656 ) ;
#178 = PRESENTATION_LAYER_ASSIGNMENT (  '', '', ( #172 ) ) ;
#179 = VERTEX_POINT ( 'NONE', #350 ) ;
#180 = ORIENTED_EDGE ( 'NONE', *, *, #346, .T. ) ;
#181 = PRODUCT_CONTEXT ( 'NONE', #303, 'mechanical' ) ;
#182 = ORIENTED_EDGE ( 'NONE', *, *, #195, .T. ) ;
#183 = EDGE_CURVE ( 'NONE', #29, #54, #137, .T. ) ;
#184 = VECTOR ( 'NONE', #108, 39.37007874015748143 ) ;
#185 = CIRCLE ( 'NONE', #123, 0.005000000000000014849 ) ;
#186 = ORIENTED_EDGE ( 'NONE', *, *, #15, .T. ) ;
#187 = FACE_BOUND ( 'NONE', #362, .T. ) ;
#188 = ADVANCED_FACE ( 'NONE', ( #40 ), #387, .F. ) ;
#189 = CARTESIAN_POINT ( 'NONE',  ( -0.2499999999999999722, 0.1250000000000000000, 0.2449999999999999400 ) ) ;
#190 = DIRECTION ( 'NONE',  ( 0.000000000000000000, 0.000000000000000000, 1.000000000000000000 ) ) ;
#191 = CIRCLE ( 'NONE', #33, 0.08849999999999985656 ) ;
#192 = DIRECTION ( 'NONE',  ( 0.000000000000000000, 0.000000000000000000, -1.000000000000000000 ) ) ;
#193 = PLANE ( 'NONE',  #25 ) ;
#194 = UNCERTAINTY_MEASURE_WITH_UNIT (LENGTH_MEASURE( 1.000000000000000082E-05 ), #171, 'distance_accuracy_value', 'NONE');
#195 = EDGE_CURVE ( 'NONE', #179, #46, #133, .T. ) ;
#196 = LINE ( 'NONE', #36, #197 ) ;
#197 = VECTOR ( 'NONE', #5, 39.37007874015748143 ) ;
#198 =( NAMED_UNIT ( * ) PLANE_ANGLE_UNIT ( ) SI_UNIT ( $, .RADIAN. ) );
#199 = ORIENTED_EDGE ( 'NONE', *, *, #11, .T. ) ;
#200 = DIRECTION ( 'NONE',  ( 0.000000000000000000, 0.000000000000000000, -1.000000000000000000 ) ) ;
#201 = ORIENTED_EDGE ( 'NONE', *, *, #102, .T. ) ;
#202 = ORIENTED_EDGE ( 'NONE', *, *, #102, .F. ) ;
#203 = DIRECTION ( 'NONE',  ( -0.000000000000000000, -0.000000000000000000, 1.000000000000000000 ) ) ;
#204 = EDGE_LOOP ( 'NONE', ( #58, #148, #80, #113 ) ) ;
#205 = CARTESIAN_POINT ( 'NONE',  ( 0.2500000000000000555, 0.000000000000000000, -0.2450000000000000233 ) ) ;
#206 = ORIENTED_EDGE ( 'NONE', *, *, #183, .T. ) ;
#207 = EDGE_LOOP ( 'NONE', ( #249, #302, #357, #265, #263, #201, #206, #313 ) ) ;
#208 = VECTOR ( 'NONE', #324, 39.37007874015748143 ) ;
#209 = EDGE_LOOP ( 'NONE', ( #144 ) ) ;
#210 = PRESENTATION_STYLE_ASSIGNMENT (( #150 ) ) ;
#211 = PRODUCT_DEFINITION ( 'UNKNOWN', '', #298, #259 ) ;
#212 = FACE_OUTER_BOUND ( 'NONE', #154, .T. ) ;
#213 = FACE_OUTER_BOUND ( 'NONE', #23, .T. ) ;
#214 = AXIS2_PLACEMENT_3D ( 'NONE', #155, #308, #251 ) ;
#215 = DIRECTION ( 'NONE',  ( 0.000000000000000000, -1.000000000000000000, 0.000000000000000000 ) ) ;
#216 = EDGE_CURVE ( 'NONE', #32, #398, #218, .T. ) ;
#217 = FILL_AREA_STYLE ('',( #132 ) ) ;
#218 = LINE ( 'NONE', #100, #104 ) ;
#219 = UNCERTAINTY_MEASURE_WITH_UNIT (LENGTH_MEASURE( 1.000000000000000082E-05 ), #274, 'distance_accuracy_value', 'NONE');
#220 = DIRECTION ( 'NONE',  ( 0.000000000000000000, 0.000000000000000000, -1.000000000000000000 ) ) ;
#221 = DIRECTION ( 'NONE',  ( 0.000000000000000000, 0.000000000000000000, -1.000000000000000000 ) ) ;
#222 = AXIS2_PLACEMENT_3D ( 'NONE', #120, #344, #61 ) ;
#223 = LINE ( 'NONE', #161, #208 ) ;
#224 = FACE_OUTER_BOUND ( 'NONE', #109, .T. ) ;
#225 = ADVANCED_FACE ( 'NONE', ( #187, #106 ), #316, .T. ) ;
#226 =( LENGTH_UNIT ( ) NAMED_UNIT ( * ) SI_UNIT ( $, .METRE. ) );
#227 = DIRECTION ( 'NONE',  ( -0.000000000000000000, -1.000000000000000000, 0.000000000000000000 ) ) ;
#228 = PLANE ( 'NONE',  #385 ) ;
#229 = CIRCLE ( 'NONE', #222, 0.005000000000000014849 ) ;
#230 = VERTEX_POINT ( 'NONE', #189 ) ;
#231 = CARTESIAN_POINT ( 'NONE',  ( 0.000000000000000000, 0.02031647494288795971, 0.08849999999999985656 ) ) ;
#232 = ADVANCED_FACE ( 'NONE', ( #317 ), #37, .T. ) ;
#233 = ORIENTED_EDGE ( 'NONE', *, *, #280, .T. ) ;
#234 = VERTEX_POINT ( 'NONE', #334 ) ;
#235 = VERTEX_POINT ( 'NONE', #69 ) ;
#236 = AXIS2_PLACEMENT_3D ( 'NONE', #320, #39, #190 ) ;
#237 = ORIENTED_EDGE ( 'NONE', *, *, #404, .F. ) ;
#238 =( GEOMETRIC_REPRESENTATION_CONTEXT ( 3 ) GLOBAL_UNCERTAINTY_ASSIGNED_CONTEXT ( ( #219 ) ) GLOBAL_UNIT_ASSIGNED_CONTEXT ( ( #274, #376, #91 ) ) REPRESENTATION_CONTEXT ( 'NONE', 'WORKASPACE' ) );
#239 = CARTESIAN_POINT ( 'NONE',  ( 0.2450000000000000233, 0.1250000000000000000, 0.2449999999999999400 ) ) ;
#240 = COLOUR_RGB ( '',0.6980392156862744724, 0.6980392156862744724, 0.6980392156862744724 ) ;
#241 = EDGE_CURVE ( 'NONE', #47, #47, #88, .T. ) ;
#242 = ORIENTED_EDGE ( 'NONE', *, *, #31, .F. ) ;
#243 = FACE_OUTER_BOUND ( 'NONE', #267, .T. ) ;
#244 = CYLINDRICAL_SURFACE ( 'NONE', #397, 0.005000000000000014849 ) ;
#245 =( LENGTH_UNIT ( ) NAMED_UNIT ( * ) SI_UNIT ( $, .METRE. ) );
#246 = AXIS2_PLACEMENT_3D ( 'NONE', #79, #165, #200 ) ;
#247 = ADVANCED_FACE ( 'NONE', ( #224 ), #382, .F. ) ;
#248 = ORIENTED_EDGE ( 'NONE', *, *, #26, .F. ) ;
#249 = ORIENTED_EDGE ( 'NONE', *, *, #286, .T. ) ;
#250 = CARTESIAN_POINT ( 'NONE',  ( 0.000000000000000000, 0.000000000000000000, 0.000000000000000000 ) ) ;
#251 = DIRECTION ( 'NONE',  ( 0.000000000000000000, 0.000000000000000000, 1.000000000000000000 ) ) ;
#252 = CONICAL_SURFACE ( 'NONE', #257, 0.1794999999999999929, 0.7155849933176751110 ) ;
#253 = CARTESIAN_POINT ( 'NONE',  ( 0.2500000000000000555, 0.1250000000000000000, 0.2499999999999999722 ) ) ;
#254 = DIRECTION ( 'NONE',  ( 0.000000000000000000, 0.000000000000000000, -1.000000000000000000 ) ) ;
#255 = DIRECTION ( 'NONE',  ( 0.000000000000000000, 0.000000000000000000, -1.000000000000000000 ) ) ;
#256 = AXIS2_PLACEMENT_3D ( 'NONE', #374, #401, #276 ) ;
#257 = AXIS2_PLACEMENT_3D ( 'NONE', #296, #304, #294 ) ;
#258 = CARTESIAN_POINT ( 'NONE',  ( 0.2450000000000000233, 0.1250000000000000000, 0.2499999999999999722 ) ) ;
#259 = PRODUCT_DEFINITION_CONTEXT ( 'detailed design', #373, 'design' ) ;
#260 = DIRECTION ( 'NONE',  ( -0.000000000000000000, 1.000000000000000000, -0.000000000000000000 ) ) ;
#261 = DIRECTION ( 'NONE',  ( -0.000000000000000000, 1.000000000000000000, -0.000000000000000000 ) ) ;
#262 = EDGE_CURVE ( 'NONE', #295, #116, #136, .T. ) ;
#263 = ORIENTED_EDGE ( 'NONE', *, *, #128, .T. ) ;
#264 = DIRECTION ( 'NONE',  ( 0.000000000000000000, 0.000000000000000000, 1.000000000000000000 ) ) ;
#265 = ORIENTED_EDGE ( 'NONE', *, *, #121, .T. ) ;
#266 = DIRECTION ( 'NONE',  ( -1.000000000000000000, -0.000000000000000000, -0.000000000000000000 ) ) ;
#267 = EDGE_LOOP ( 'NONE', ( #392, #169, #300, #242 ) ) ;
#268 = DIRECTION ( 'NONE',  ( -0.000000000000000000, 1.000000000000000000, -0.000000000000000000 ) ) ;
#269 = ORIENTED_EDGE ( 'NONE', *, *, #354, .F. ) ;
#270 = ORIENTED_EDGE ( 'NONE', *, *, #31, .T. ) ;
#271 = CARTESIAN_POINT ( 'NONE',  ( 0.2450000000000000233, 0.1250000000000000000, -0.2500000000000000555 ) ) ;
#272 = DIRECTION ( 'NONE',  ( 0.000000000000000000, 0.000000000000000000, -1.000000000000000000 ) ) ;
#273 = CYLINDRICAL_SURFACE ( 'NONE', #256, 0.08849999999999985656 ) ;
#274 =( CONVERSION_BASED_UNIT ( 'INCH', #372 ) LENGTH_UNIT ( ) NAMED_UNIT ( #282 ) );
#275 = MECHANICAL_DESIGN_GEOMETRIC_PRESENTATION_REPRESENTATION (  '', ( #172 ), #238 ) ;
#276 = DIRECTION ( 'NONE',  ( 0.000000000000000000, 0.000000000000000000, 1.000000000000000000 ) ) ;
#277 = DIMENSIONAL_EXPONENTS ( 1.000000000000000000, 0.000000000000000000, 0.000000000000000000, 0.000000000000000000, 0.000000000000000000, 0.000000000000000000, 0.000000000000000000 ) ;
#278 = FACE_OUTER_BOUND ( 'NONE', #16, .T. ) ;
#279 = MANIFOLD_SOLID_BREP ( 'CSK for #8 Flat Head Socket Cap Screw1', #18 ) ;
#280 = EDGE_CURVE ( 'NONE', #13, #179, #196, .T. ) ;
#281 = CARTESIAN_POINT ( 'NONE',  ( 0.2450000000000000233, 0.1250000000000000000, 0.2449999999999999400 ) ) ;
#282 = DIMENSIONAL_EXPONENTS ( 1.000000000000000000, 0.000000000000000000, 0.000000000000000000, 0.000000000000000000, 0.000000000000000000, 0.000000000000000000, 0.000000000000000000 ) ;
#283 = DIRECTION ( 'NONE',  ( -0.000000000000000000, -1.000000000000000000, 0.000000000000000000 ) ) ;
#284 = CARTESIAN_POINT ( 'NONE',  ( -0.2499999999999999722, 0.1250000000000000000, -0.2500000000000000555 ) ) ;
#285 = CARTESIAN_POINT ( 'NONE',  ( 0.000000000000000000, 0.1250000000000000000, 0.000000000000000000 ) ) ;
#286 = EDGE_CURVE ( 'NONE', #92, #116, #345, .T. ) ;
#287 = CARTESIAN_POINT ( 'NONE',  ( -0.2449999999999999400, 0.000000000000000000, 0.2449999999999999400 ) ) ;
#288 = FACE_BOUND ( 'NONE', #151, .T. ) ;
#289 = AXIS2_PLACEMENT_3D ( 'NONE', #157, #283, #220 ) ;
#290 = VECTOR ( 'NONE', #107, 39.37007874015748143 ) ;
#291 = DIRECTION ( 'NONE',  ( 0.000000000000000000, -1.000000000000000000, 0.000000000000000000 ) ) ;
#292 = DIRECTION ( 'NONE',  ( 0.000000000000000000, 0.000000000000000000, -1.000000000000000000 ) ) ;
#293 = ORIENTED_EDGE ( 'NONE', *, *, #71, .T. ) ;
#294 = DIRECTION ( 'NONE',  ( 0.000000000000000000, 0.000000000000000000, 1.000000000000000000 ) ) ;
#295 = VERTEX_POINT ( 'NONE', #323 ) ;
#296 = CARTESIAN_POINT ( 'NONE',  ( 0.000000000000000000, 0.1250000000000000000, 0.000000000000000000 ) ) ;
#297 = VECTOR ( 'NONE', #306, 39.37007874015748143 ) ;
#298 = PRODUCT_DEFINITION_FORMATION_WITH_SPECIFIED_SOURCE ( 'ANY', '', #384, .NOT_KNOWN. ) ;
#299 = ORIENTED_EDGE ( 'NONE', *, *, #262, .T. ) ;
#300 = ORIENTED_EDGE ( 'NONE', *, *, #55, .F. ) ;
#301 = EDGE_CURVE ( 'NONE', #13, #235, #130, .T. ) ;
#302 = ORIENTED_EDGE ( 'NONE', *, *, #404, .T. ) ;
#303 = APPLICATION_CONTEXT ( 'automotive_design' ) ;
#304 = DIRECTION ( 'NONE',  ( -0.000000000000000000, 1.000000000000000000, -0.000000000000000000 ) ) ;
#305 = MECHANICAL_DESIGN_GEOMETRIC_PRESENTATION_REPRESENTATION (  '', ( #341 ), #369 ) ;
#306 = DIRECTION ( 'NONE',  ( 0.000000000000000000, -1.000000000000000000, 0.000000000000000000 ) ) ;
#307 = ADVANCED_FACE ( 'NONE', ( #159 ), #6, .T. ) ;
#308 = DIRECTION ( 'NONE',  ( -0.000000000000000000, 1.000000000000000000, -0.000000000000000000 ) ) ;
#309 = VERTEX_POINT ( 'NONE', #105 ) ;
#310 = SURFACE_SIDE_STYLE ('',( #86 ) ) ;
#311 = CARTESIAN_POINT ( 'NONE',  ( 0.2450000000000000233, 0.1250000000000000000, 0.2499999999999999722 ) ) ;
#312 = VECTOR ( 'NONE', #110, 39.37007874015748143 ) ;
#313 = ORIENTED_EDGE ( 'NONE', *, *, #361, .T. ) ;
#314 = UNCERTAINTY_MEASURE_WITH_UNIT (LENGTH_MEASURE( 1.000000000000000082E-05 ), #72, 'distance_accuracy_value', 'NONE');
#315 = EDGE_CURVE ( 'NONE', #331, #54, #163, .T. ) ;
#316 = PLANE ( 'NONE',  #8 ) ;
#317 = FACE_OUTER_BOUND ( 'NONE', #375, .T. ) ;
#318 = PRESENTATION_LAYER_ASSIGNMENT (  '', '', ( #341 ) ) ;
#319 = AXIS2_PLACEMENT_3D ( 'NONE', #287, #386, #292 ) ;
#320 = CARTESIAN_POINT ( 'NONE',  ( 0.000000000000000000, 0.1250000000000000000, 0.000000000000000000 ) ) ;
#321 = PRODUCT_RELATED_PRODUCT_CATEGORY ( 'part', '', ( #384 ) ) ;
#322 = DIMENSIONAL_EXPONENTS ( 1.000000000000000000, 0.000000000000000000, 0.000000000000000000, 0.000000000000000000, 0.000000000000000000, 0.000000000000000000, 0.000000000000000000 ) ;
#323 = CARTESIAN_POINT ( 'NONE',  ( -0.2449999999999999400, 0.000000000000000000, -0.2500000000000000555 ) ) ;
#324 = DIRECTION ( 'NONE',  ( 1.000000000000000000, 0.000000000000000000, 0.000000000000000000 ) ) ;
#325 =( NAMED_UNIT ( * ) PLANE_ANGLE_UNIT ( ) SI_UNIT ( $, .RADIAN. ) );
#326 = DIRECTION ( 'NONE',  ( -0.000000000000000000, 1.000000000000000000, -0.000000000000000000 ) ) ;
#327 = DIRECTION ( 'NONE',  ( -1.000000000000000000, -0.000000000000000000, -0.000000000000000000 ) ) ;
#328 = VECTOR ( 'NONE', #260, 39.37007874015748143 ) ;
#329 = DIRECTION ( 'NONE',  ( -1.000000000000000000, 0.000000000000000000, 0.000000000000000000 ) ) ;
#330 = EDGE_CURVE ( 'NONE', #395, #295, #396, .T. ) ;
#331 = VERTEX_POINT ( 'NONE', #205 ) ;
#332 = DIRECTION ( 'NONE',  ( 0.000000000000000000, 0.000000000000000000, -1.000000000000000000 ) ) ;
#333 = ORIENTED_EDGE ( 'NONE', *, *, #195, .F. ) ;
#334 = CARTESIAN_POINT ( 'NONE',  ( 0.000000000000000000, -3.414809992080329023E-17, 0.08849999999999985656 ) ) ;
#335 = VECTOR ( 'NONE', #266, 39.37007874015748143 ) ;
#336 = EDGE_LOOP ( 'NONE', ( #269, #293, #52, #394, #146, #186, #111, #84 ) ) ;
#337 = CARTESIAN_POINT ( 'NONE',  ( 0.2500000000000000555, 0.1250000000000000000, 0.2499999999999999722 ) ) ;
#338 = ORIENTED_EDGE ( 'NONE', *, *, #262, .F. ) ;
#339 = ORIENTED_EDGE ( 'NONE', *, *, #388, .T. ) ;
#340 = ADVANCED_FACE ( 'NONE', ( #117 ), #228, .F. ) ;
#341 = STYLED_ITEM ( 'NONE', ( #70 ), #279 ) ;
#342 = ORIENTED_EDGE ( 'NONE', *, *, #388, .F. ) ;
#343 = CARTESIAN_POINT ( 'NONE',  ( -0.2499999999999999722, 0.1250000000000000000, -0.2500000000000000555 ) ) ;
#344 = DIRECTION ( 'NONE',  ( 0.000000000000000000, -1.000000000000000000, 0.000000000000000000 ) ) ;
#345 = LINE ( 'NONE', #284, #356 ) ;
#346 = EDGE_CURVE ( 'NONE', #234, #234, #191, .T. ) ;
#347 = CARTESIAN_POINT ( 'NONE',  ( -0.2499999999999999722, 0.1250000000000000000, -0.2450000000000000233 ) ) ;
#348 = CARTESIAN_POINT ( 'NONE',  ( 0.000000000000000000, 0.000000000000000000, 0.000000000000000000 ) ) ;
#349 = EDGE_CURVE ( 'NONE', #235, #230, #77, .T. ) ;
#350 = CARTESIAN_POINT ( 'NONE',  ( 0.2450000000000000233, 0.000000000000000000, 0.2499999999999999722 ) ) ;
#351 = SURFACE_STYLE_USAGE ( .BOTH. , #99 ) ;
#352 = AXIS2_PLACEMENT_3D ( 'NONE', #64, #126, #272 ) ;
#353 = DIRECTION ( 'NONE',  ( -1.000000000000000000, 0.000000000000000000, -0.000000000000000000 ) ) ;
#354 = EDGE_CURVE ( 'NONE', #398, #235, #358, .T. ) ;
#355 = CARTESIAN_POINT ( 'NONE',  ( 0.000000000000000000, -3.414809992080329023E-17, 0.000000000000000000 ) ) ;
#356 = VECTOR ( 'NONE', #327, 39.37007874015748143 ) ;
#357 = ORIENTED_EDGE ( 'NONE', *, *, #115, .T. ) ;
#358 = LINE ( 'NONE', #17, #51 ) ;
#359 = EDGE_LOOP ( 'NONE', ( #248 ) ) ;
#360 =( LENGTH_UNIT ( ) NAMED_UNIT ( * ) SI_UNIT ( $, .METRE. ) );
#361 = EDGE_CURVE ( 'NONE', #54, #92, #153, .T. ) ;
#362 = EDGE_LOOP ( 'NONE', ( #180 ) ) ;
#363 = CARTESIAN_POINT ( 'NONE',  ( -0.2499999999999999722, 0.000000000000000000, -0.2500000000000000555 ) ) ;
#364 = ORIENTED_EDGE ( 'NONE', *, *, #11, .F. ) ;
#365 = FACE_BOUND ( 'NONE', #359, .T. ) ;
#366 = ORIENTED_EDGE ( 'NONE', *, *, #216, .F. ) ;
#367 = ADVANCED_FACE ( 'NONE', ( #365, #167 ), #252, .F. ) ;
#368 = CARTESIAN_POINT ( 'NONE',  ( -0.2449999999999999400, 0.1250000000000000000, 0.2499999999999999722 ) ) ;
#369 =( GEOMETRIC_REPRESENTATION_CONTEXT ( 3 ) GLOBAL_UNCERTAINTY_ASSIGNED_CONTEXT ( ( #314 ) ) GLOBAL_UNIT_ASSIGNED_CONTEXT ( ( #72, #325, #67 ) ) REPRESENTATION_CONTEXT ( 'NONE', 'WORKASPACE' ) );
#370 = CARTESIAN_POINT ( 'NONE',  ( 0.2450000000000000233, 0.1250000000000000000, -0.2450000000000000233 ) ) ;
#371 = CIRCLE ( 'NONE', #19, 0.005000000000000014849 ) ;
#372 = LENGTH_MEASURE_WITH_UNIT ( LENGTH_MEASURE( 0.02539999999999999897 ), #245 );
#373 = APPLICATION_CONTEXT ( 'automotive_design' ) ;
#374 = CARTESIAN_POINT ( 'NONE',  ( 0.000000000000000000, 0.1250000000000000000, 0.000000000000000000 ) ) ;
#375 = EDGE_LOOP ( 'NONE', ( #237, #338, #174, #366 ) ) ;
#376 =( NAMED_UNIT ( * ) PLANE_ANGLE_UNIT ( ) SI_UNIT ( $, .RADIAN. ) );
#377 = PLANE ( 'NONE',  #391 ) ;
#378 = PRODUCT_DEFINITION_SHAPE ( 'NONE', 'NONE',  #211 ) ;
#379 = SURFACE_STYLE_FILL_AREA ( #217 ) ;
#380 = LINE ( 'NONE', #12, #94 ) ;
#381 = FACE_OUTER_BOUND ( 'NONE', #207, .T. ) ;
#382 = PLANE ( 'NONE',  #63 ) ;
#383 = CARTESIAN_POINT ( 'NONE',  ( -0.2449999999999999400, 0.1250000000000000000, 0.2449999999999999400 ) ) ;
#384 = PRODUCT ( 'CARBIDE PAD_IBF-5200-100', 'CARBIDE PAD_IBF-5200-100', '', ( #181 ) ) ;
#385 = AXIS2_PLACEMENT_3D ( 'NONE', #337, #329, #264 ) ;
#386 = DIRECTION ( 'NONE',  ( 0.000000000000000000, -1.000000000000000000, 0.000000000000000000 ) ) ;
#387 = PLANE ( 'NONE',  #75 ) ;
#388 = EDGE_CURVE ( 'NONE', #29, #138, #175, .T. ) ;
#389 = DIRECTION ( 'NONE',  ( 0.000000000000000000, 0.000000000000000000, -1.000000000000000000 ) ) ;
#390 = CARTESIAN_POINT ( 'NONE',  ( -0.2449999999999999400, 0.1250000000000000000, -0.2450000000000000233 ) ) ;
#391 = AXIS2_PLACEMENT_3D ( 'NONE', #343, #176, #122 ) ;
#392 = ORIENTED_EDGE ( 'NONE', *, *, #361, .F. ) ;
#393 = CARTESIAN_POINT ( 'NONE',  ( 0.2500000000000000555, 0.1250000000000000000, 0.2449999999999999400 ) ) ;
#394 = ORIENTED_EDGE ( 'NONE', *, *, #55, .T. ) ;
#395 = VERTEX_POINT ( 'NONE', #81 ) ;
#396 = LINE ( 'NONE', #363, #335 ) ;
#397 = AXIS2_PLACEMENT_3D ( 'NONE', #370, #59, #254 ) ;
#398 = VERTEX_POINT ( 'NONE', #112 ) ;
#399 = ADVANCED_FACE ( 'NONE', ( #145 ), #24, .T. ) ;
#400 = CARTESIAN_POINT ( 'NONE',  ( -0.2449999999999999400, 0.000000000000000000, 0.2499999999999999722 ) ) ;
#401 = DIRECTION ( 'NONE',  ( -0.000000000000000000, 1.000000000000000000, -0.000000000000000000 ) ) ;
#402 = EDGE_LOOP ( 'NONE', ( #202, #333, #76, #342 ) ) ;
#403 = SHAPE_DEFINITION_REPRESENTATION ( #378, #20 ) ;
#404 = EDGE_CURVE ( 'NONE', #116, #32, #371, .T. ) ;
#405 = DIRECTION ( 'NONE',  ( 0.000000000000000000, 0.000000000000000000, -1.000000000000000000 ) ) ;
ENDSEC;
END-ISO-10303-21;
